Oops, an error
Loading. Please wait.

Dynasty Warriors 5 - Break Through Tab

634 views 1 this week
no commentswrite comment
1 2 3 4 5
please rate
add to favorites
launch autoscroll
font size
0
reset
how to read this tab
guitar tuner
Autoscroll
slow
fast
+/-
esc
set tempo
stop
Help us to improve Ultimate-Guitar.com Take our survey!
×
Author
Difficulty
novice
-------------------------------------------------------------------------------
                             Breakthrough - Dynasty Warriors 5
-------------------------------------------------------------------------------
Tabbed by: iruka2998
Email: tbanez18@googlemail.com

Tuning: Standard (EADGBe)

Time = 0.00
e|---------------------------------------------------------------------------|
B|---------------------------------------------------------------------------|
G|---------------------------------------------------------------------------|
D|---------------------------------------------------------------------------|
A|-0/2-3-5-3-2-0~----0-2-3-5-3-2-0~~~----------------------------------------|
E|---------------------------------------------------------------------------|

Time = 0.11
e|---------------------------------------------------------------------------|
B|---------------------------------------------------------------------------|
G|---------------------------------------------------------------------------|
D|-5h7p5-5-7-3----7p5-5-7-3--------------------------------------------------|
A|-----------------------------------------------^^^^^^^^^^^^^^--------------|
E|---------------------------------------------------------------------------|

Time = 0.23
e|---------------------------------------------------------------------------|
B|---------------------------------------------------------------------------|
G|---------------------------------------------------------------------------|
D|-5h7p5-5-7-3---------------------------------------------------------------|
A|-------------0-0-0-0-0-0-0-0----0-0-0-0-0-0-0-0-3--------------------------|
E|---------------------------------------------------------------------------|
           p.m|----------------------------------| 
 
Time = 0.31
e|---------------------------------------------------------------------------|
B|---------------------------------------------------------------------------|
G|---------------------------------------------------------------------------|
D|-7p5-5-7-3-----------------------------------------------------------------|
A|-------------0-0-0-0-0-0-0-0----0-0-0-0-0-0-0-0-3--------------------------|
E|---------------------------------------------------------------------------|
           p.m|----------------------------------|  

Time = 0.35
e|---------------------------------------------------------------------------|
B|---------------------------------------------------------------------------|
G|---------------------------------------------------------------------------|
D|---------------------------------------------------------------------------|
A|-0-2-3-5-7-10-5----0-2-3-5h7p5~~~------------------------------------------|
E|---------------------------------------------------------------------------|

Time = 0.47
e|---------------------------------------------------------------------------|
B|---------------------------------------------------------------------------|
G|---------------------------------------------------------------------------|
D|-----------------------------7---------------------------------------------|
A|-0-2-3-5-7-10-5----0-2-3-5-7-----------------------------------------------|
E|---------------------------------------------------------------------------|

Time = 1.00
e|---------------------------------------------------------------------------|
B|---------------------------------------------------------------------------|
G|-------------7-9-10-12-10-9-7-----------------7--9~------------------------|
D|-7--7-9-10--------------------10-7--9--7-9-10------------------------------|
A|---------------------------------------------------------------------------|
E|---------------------------------------------------------------------------|

Time = 1.16
e|---------------------------------------------------------------------------|
B|---------------------------------------------------------------------------|
G|---------------------------------------------------------------------------|
D|---------------------------------------------------------------------------|---| Play 4 Times|
A|-----0-0-0-0-0-0-0-0----0-0-0-0-0-0-0-0-3----------------------------------|
E|---------------------------------------------------------------------------|
   p.m|----------------------------------| 

Time = 1.30
e|---------------------------------------------------------------------------|
B|---------------------------------------------------------------------------|
G|---------------------------------------------------------------------------|
D|---------------------------------------------------------------------------|
A|--7p5-5-7-3--------7p5-5-7-3-----------^^^^^^^^^^^^^^----------------------|
E|---------------------------------------------------------------------------|

Time = 1.43
e|---------------------------------------------------------------------------|
B|---------------------------------------------------------------------------|
G|---------------------------------------------------------------------------|
D|-5h7p5-5-7-3---------------------------------------------------------------|
A|-------------0-0-0-0-0-0-0-0----0-0-0-0-0-0-0-0-3--------------------------|
E|---------------------------------------------------------------------------|
           p.m|----------------------------------| 
 
Time = 1.50
e|---------------------------------------------------------------------------|
B|---------------------------------------------------------------------------|
G|---------------------------------------------------------------------------|
D|-7p5-5-7-3-----------------------------------------------------------------|
A|-------------0-0-0-0-0-0-0-0----0-0-0-0-0-0-0-0-3--------------------------|
E|---------------------------------------------------------------------------|
           p.m|----------------------------------|  


Time = 1.54
e|---------------------------------------------------------------------------|
B|---------------------------------------------------------------------------|
G|---------------------------------------------------------------------------|
D|---------------------------------------------------------------------------|
A|-0-2-3-5-7-10-5----0-2-3-5h7p5~~~------------------------------------------|
E|---------------------------------------------------------------------------|

Time = 2.06
e|---------------------------------------------------------------------------|
B|---------------------------------------------------------------------------|
G|---------------------------------------------------------------------------|
D|-----------------------------7---------------------------------------------|
A|-0-2-3-5-7-10-5----0-2-3-5-7-----------------------------------------------|
E|---------------------------------------------------------------------------|

Time = 2.19
e|---------------------------------------------------------------------------|
B|---------------------------------------------------------------------------|
G|-------------7-9-10-12-10-9-7-----------------7--9~------------------------|
D|-7--7-9-10--------------------10-7--9--7-9-10------------------------------|
A|---------------------------------------------------------------------------|
E|---------------------------------------------------------------------------|

Time = 2.35, Play till fade out
e|---------------------------------------------------------------------------|
B|---------------------------------------------------------------------------|
G|---------------------------------------------------------------------------|
D|---------------------------------------------------------------------------|
A|-----0-0-0-0-0-0-0-0----0-0-0-0-0-0-0-0-3----------------------------------|
E|---------------------------------------------------------------------------|
   p.m|----------------------------------| 




===============================================================================
| ^  Pick Slide [scrape pick down string]
| p.m  Palm mute
| /  slide up
| \  slide down
| h  hammer-on
| p  pull-off
| ~  vibrato
| +  harmonic
| x  Mute note
===============================================================================
Suggest correction
Give kudos to tab author, rate the tab!
1 2 3 4 5
comments
print report bad tab
guest
You may want to rate the tab now too:
select rating
Wanna post a correction for this tab? Suggest correction