Oops, an error
Loading. Please wait.

Dynasty Warriors 5 - Finish Them Off Tab

849 views 1 this week
no commentswrite comment
1 2 3 4 5
please rate
add to favorites
launch autoscroll
font size
0
reset
how to read this tab
guitar tuner
Autoscroll
slow
fast
+/-
esc
set tempo
stop
Help us to improve Ultimate-Guitar.com Take our survey!
×
Author
Difficulty
novice
------------------------------------
Finish Them Off - Dynasty Warriors 5
------------------------------------
Tabbed by: PLZKLLME0080
Email: PLZKLLME0080@hotmail.com

Tuning: Standard


e|---------------------------------------------|
B|-11----------8----------6----------2---------|
G|-12----------9----------7----------3---------|
D|---------------------------------------------|
A|---------------------------------------------|
E|---------------------------------------------|

e|----------------------------------------------------------------|
B|----------------------------------------------------------------|
G|---------------------------0h2----------------------5-----------|
D|-----------3-5-----3h5---------3------------3-5-770---7-5-3-7-3-|
A|-5--5-3-5-------5------3-5-------5--5-3-5-0---------------------|
E|----------------------------------------------------------------|

e|----------------------------------------------------------------|
B|----------------------------------------------------------------|
G|---------------------------0h2------------------775-7-----------|
D|-----------3-5-----3h5---------3------------3-5-------5--3-7-3--|
A|-5--5-3-5-------5------3-5-------5--5-3-5-0---------------------|
E|----------------------------------------------------------------|

e|--------------------------|
B|--------------------------|
G|--------------------------|
D|-----------3-5-------3----| x5
A|-5--5-3-5------5-3-5------|
E|--------------------------|

e|------------------|
B|------------------|
G|------------------|
D|------------------|
A|-5-5-3-5----------|
E|---------3--1-5-1-|

e|----------------------------------------------------------------|
B|----------------------------------------------------------------|
G|---------------------------0h2----------------------5-----------|
D|-----------3-5-----3h5---------3------------3-5-770---7-5-3-7-3-|
A|-5--5-3-5-------5------3-5-------5--5-3-5-0---------------------|
E|----------------------------------------------------------------|

e|----------------------------------------------------------------|
B|----------------------------------------------------------------|
G|---------------------------0h2------------------775-7-----------|
D|-----------3-5-----3h5---------3------------3-5-------5--3-7-3--|
A|-5--5-3-5-------5------3-5-------5--5-3-5-0---------------------|
E|----------------------------------------------------------------|

e|-----------------------------------------------|
B|-----------------------------------------------|
G|-12----12--12------12----12--10--12--14--12----|
D|----------------12-----------------------------|
A|-----------------------------------------------|
E|-----------------------------------------------|

e|--------------13---12--------------------------|
B|----------15------------15---------------------|
G|-12---15--------------------15---14---12-------|
D|------------------------------------------14---|
A|-----------------------------------------------|
E|-----------------------------------------------|

e|-----------------------------------------------|
B|-----------------------------------------------|
G|-12----12--12------12----12--10--12--14--12----|
D|----------------12-----------------------------|
A|-----------------------------------------------|
E|-----------------------------------------------|

e|--------------13---14---------------|
B|----------15------------15-/19------|
G|-12---15----------------------------|
D|------------------------------------|
A|------------------------------------|
E|------------------------------------|

e|-----------------------------------|
B|-----------------------------------|
G|-12--12----12---10--12--14--12-----|
D|-----------------------------------| x4
A|-----------------------------------|
E|-----------------------------------|

e|---------------3/15~---------------|
B|-----------------------------------|
G|-12~-------------------------------|
D|-----------------------------------|
A|-----------------------------------|
E|-----------------------------------|

e|------------------|
B|------------------|
G|------------------|
D|------------------| x 4
A|-5-5-3-5----------|
E|---------3--1-5-1-|

Bass part for 1 measure.

e|------------------|
B|------------------|
G|------------------|
D|------------------|
A|-5-5-3-5----------|
E|---------3--1-5-1-|


| /  slide up
| \  slide down
| h  hammer-on
| p  pull-off
| ~  vibrato
| +  harmonic
| x  Mute note
===============================================================================
Suggest correction
Give kudos to tab author, rate the tab!
1 2 3 4 5
comments
print report bad tab
guest
You may want to rate the tab now too:
select rating
Wanna post a correction for this tab? Suggest correction