Oops, an error
Loading. Please wait.

Dynasty Warriors 5 - Guan Yus Theme Tab

734 views 1 this week
no commentswrite comment
1 2 3 4 5
3 more votes to show rating
add to favorites
launch autoscroll
font size
0
reset
how to read this tab
guitar tuner
Autoscroll
slow
fast
+/-
esc
set tempo
stop
Help us to improve Ultimate-Guitar.com Take our survey!
×
Author
Difficulty
Tuning
novice
D A D G B E
-------------------------------------------------------------------------------
                             Guan Yu's Theme - Dynasty Warriors 5
-------------------------------------------------------------------------------

Tabbed by: iruka2998
Email: tbanez18@googlemail.com

Tuning: Drop D (DADGBe)

Time = 0.00
e|---------------------------------------------------------------------------|
B|---------------------------------------------------------------------------|
G|---------------------------------------------------------------------------|
D|---------------------------------------------------------------------------|---|Play 4 Times|
A|-0-0-1-1-0-0-1-1-0-3-1--0-0-1-1-0-0-1-1-0-X--------------------------------|
D|-0-0-1-1-0-0-1-1-0-3-1--0-0-1-1-0-0-1-1-0-X-4-3-1--------------------------|

Time = 0.29
e|---------------------------------------------------------------------------|
B|---------------------------------------------------------------------------|
G|---------------------------------------------------------------------------|
D|---------------------------------------------------------------------------|---|Play 2 Times|
A|-----------------------------5---------------------------------------------|
D|-0-0-3-3-0-0----0-0-3-3-0-0--5---------------------------------------------|
    p.m-----|      p.m-----|  

Time = 0.36
e|---------------------------------------------------------------------------|
B|---------------------------------------------------------------------------|
G|---------------------------------------------------------------------------|
D|---------------------------------------------------------------------------|
A|-----------------------------7---------------------------------------------|
D|-0-0-3-3-0-0----0-0-3-3-0-0--7---------------------------------------------|
    p.m-----|      p.m-----|  


Time = 0.41
e|---------------------------------------------------------------------------|
B|---------------------------------------------------------------------------|
G|---------------------------------------------------------------------------|
D|---------------------------------------------------------------------------|
A|---------------------------------------------------------------------------|
D|-0-0-3-3-0-0----0-0-3-3-0-0------------------------------------------------|
    p.m-----|      p.m-----|  

Time = 0.44
e|---------------------------------------------------------------------------|
B|---------------------------------------------------------------------------|
G|---------------------------------------------------------------------------|
D|---------------------------------------------------------------------------|---|Play 2 Times|
A|-----------------------------5---------------------------------------------|
D|-0-0-3-3-0-0----0-0-3-3-0-0--5---------------------------------------------|
    p.m-----|      p.m-----|  

Time = 0.51
e|---------------------------------------------------------------------------|
B|---------------------------------------------------------------------------|
G|---------------------------------------------------------------------------|
D|---------------------------------------------------------------------------|
A|-----------------------------7---------------------------------------------|
D|-0-0-3-3-0-0----0-0-3-3-0-0--7---------------------------------------------|
    p.m-----|      p.m-----|  


Time = 0.55
e|---------------------------------------------------------------------------|
B|---------------------------------------------------------------------------|
G|---------------------------------------------------------------------------|
D|---------------------------------------------------------------------------|
A|---------------------------------------------------------------------------|
D|-0-0-3-3-0-0----0-0-3-3-0-0------------------------------------------------|

Time = 0.59
e|---------------------------------------------------------------------------|
B|---------------------------------------------------------------------------|
G|------3-5-5-5p3h5--5b-5b-3-------------------------------------------------|
D|-3/5-----------------------7-5-3-------------------------------------------|
A|---------------------------------------------------------------------------|
D|---------------------------------------------------------------------------|


e|---------------------------------------------------------------------------|
B|-----------------------------3-3-------------------------------------------|
G|-------3-5-5-5p3h5--5b--3--5-----------------------------------------------|
D|-3/5-----------------------------------------------------------------------|
A|---------------------------------------------------------------------------|
D|---------------------------------------------------------------------------|

e|---------------------------------------------------------------------------|
B|---------------------------------------------------------------------------|
G|------3-5-5-5p3h5--5b-5b-3-------------------------------------------------|
D|-3/5-----------------------7-5-3-------------------------------------------|
A|---------------------------------------------------------------------------|
D|---------------------------------------------------------------------------|


e|---------------------------------------------------------------------------|
B|-----------------------------3-3-------------------------------------------|
G|-------3-5-5-5p3h5--5b--3--5-----------------------------------------------|
D|-3/5-----------------------------------------------------------------------|
A|---------------------------------------------------------------------------|
D|---------------------------------------------------------------------------|

Time= 1.28
e|---------------------------------------------------------------------------|
B|---------------------------------------------------------------------------|
G|---------------------------------------------------------------------------|
D|---------------------------------------------------------------------------|
A|-0-0------------0-0------------0-0------------0-0--------------------------|
D|-0-0------------0-0------------0-0------------0-0--------------------------|

Time = 1.43
e|---------------------------------------------------------------------------|
B|---------------------------------------------------------------------------|
G|---------------------------------------------------------------------------|
D|---------------------------------------------------------------------------|---|Play 4 Times|
A|---------------------------------------------------------------------------|
D|-0-0--3-0-0-3-0-0-3-0-3-0-0--3-0-0-3-0-0-3---------------------------------|
    p.m--------------------------------------| 


Time = 1.58 (Play till song fades out)
e|---------------------------------------------------------------------------|
B|---------------------------------------------------------------------------|
G|---------------------------------------------------------------------------|
D|---------------------------------------------------------------------------|---|Play 4 Times|
A|-0-0-1-1-0-0-1-1-0-3-1--0-0-1-1-0-0-1-1-0-X--------------------------------|
D|-0-0-1-1-0-0-1-1-0-3-1--0-0-1-1-0-0-1-1-0-X-4-3-1--------------------------|




===============================================================================
| p.m palm mute  
| /  slide up
| \  slide down
| h  hammer-on
| p  pull-off
| ~  vibrato
| +  harmonic
| x  Mute note
| b  bend
===============================================================================
Suggest correction
Give kudos to tab author, rate the tab!
1 2 3 4 5
comments
print report bad tab
guest
You may want to rate the tab now too:
select rating
Wanna post a correction for this tab? Suggest correction