Oops, an error
Loading. Please wait.

Dynasty Warriors 5 - Narrow Escape Tab

version 1
version 1

Whole song

Interactive

518 views 1 this week
1 commentread comment
1 2 3 4 5
please rate
add to favorites
launch autoscroll
font size
0
reset
how to read this tab
guitar tuner
Autoscroll
slow
fast
+/-
esc
set tempo
stop
Help us to improve Ultimate-Guitar.com Take our survey!
×
Author
I've decided to make another version in this song cuz the first one i make didn't have 
beginning riff.

          Rhythm Guitar
e-------------------------------------------------|
b-------------------------------------------------|
g-------------------------------------------------|
d-------------------------------------------------|  Repeat 5x
a--7----------3---------5---------6---------------|
e--5--555555--1-111111--3-333333--4-444444--------|
      ......    ......    ......    ......

          Lead Guitar

e-------------------------------------------------|  Repeat 2x
b-15b17-(17)--15-13--15b17r15-13-12-13b14r13------|
g-------------------------------------------------|  After rhythm play the
d-------------------------------------------------|  Riff the 3th time, the
a-------------------------------------------------|  Lead kicks in.
e-------------------------------------------------|

e----------------------------------------------------------------|
b-12h13p12---12-13-15-17-19-19b21-(21)--19---15b17-(17)--15------|
g---------14-----------------------------------------------------|
d----------------------------------------------------------------|
a----------------------------------------------------------------|
e----------------------------------------------------------------|


                Rhythm Guitar
e----------------------------------------------------|
b----------------------------------------------------|
g----------------------------------------------------| Rhythm guitar
d-12b13-(13)-12-10--12b13r12-(12)-10-9-10b11r10-(10)-| plays this part
a----------------------------------------------------| at the same time
e----------------------------------------------------| as the Lead.

e--------------------------------------------------------------|
b--------------------------------------------------------------|
g-------------------9-11-11b12-(12)-11-------------------------|
d--9h10p9----9-10-12-------------------12b13-(13)-12-----------|
a---------11---------------------------------------------------|
e--------------------------------------------------------------|

 This is the only part that I got up to. If you think that there is something wrong with 
tab, plz correct it.
Suggest correction
Give kudos to tab author, rate the tab!
1 2 3 4 5
comments
print report bad tab
1 comment total.
0 reply
edubf22 31 wrote on September 18 2009, 07:36 pm

you are missing one riff from the music, something like
e-------------------------------------------------|
b-------------------------------------------------|
g-------------7~-----------8~---------------------|
d-------------7~-----------8~---------------------|
a-------------5~-----------6~---------------------|
e-------------------------------------------------|

guest
You may want to rate the tab now too:
select rating
Please do not post tabs as comments. Select "correction" instead!