Oops, an error
Loading. Please wait.

Dynasty Warriors 5 Theme Tab

version 1
version 1

Whole song

4,207 views 3 this week
1 commentread comment
1 2 3 4 5
please rate
add to favorites
launch autoscroll
font size
0
reset
how to read this tab
guitar tuner
Autoscroll
slow
fast
+/-
esc
set tempo
stop
Help us to improve Ultimate-Guitar.com Take our survey!
×
Author
Difficulty
Tuning
novice
D A D G B E
-------------------------------------------------------------------------------
                             Fate Corrodes Me - Dynasty Warriors 5
-------------------------------------------------------------------------------


Tabbed by: iruka2998
Email: tbanez18@googlemail.com

Tuning: Drop D (DADGBe)



Intro; Time = 0.02
Guitars 1&2
e|---------------------------------------------------------------------------|
B|---------------------------------------------------------------------------|
G|---------------------------------------------------------------------------|
D|---------------------------------------------------------------------------|
A|-2-2--------2-2--------2-2--------2-2-2-2-2-2-2-2-2-2-2-2-2-2-2------------|
D|-2-2--------2-2--------2-2--------2-2-2-2-2-2-2-2-2-2-2-2-2-2-2------------|
                                        |________PALM MUTE________|



Main Riff : Time = 0.13
Guitars 1&2
e|---------------------------------------------------------------------------| |----|
B|---------------------------------------------------------------------------| |
G|---------------------------------------------------------------------------| | 
D|---------------------------------------------------------------------------| |-Play 3 Times
A|-2-2--2-2--2-2--2-2--2-2--2-2--2-2--2-2--2-2--2-8~~------------------------| |
D|-2-2--2-2--2-2--2-2--2-2--2-2--2-2--2-2--2-2--2-8~~------------------------| |----|

e|-------------------------------------------|
B|-------------------------------------------|  
G|-------------------------------------------| 
D|-----------------------------------------x-|
A|-2-2--2-2--2-2--2-2--2-2--2-2--2-2--2-2--x-|  
D|-2-2--2-2--2-2--2-2--2-2--2-2--2-2--2-2--x-|





Part A; Time = 0.35
Guitar 1 (lead)
e|---------------------------------------------------------------------------|
B|---------------------------------------------------------------------------|
G|---------------------------------------------------------------------------|
D|-----5-7~---9~---10~------10-12--13(b)--9--------9-10-7----3---------------|
A|-5-7-----------------------------------------------------------------------|
D|---------------------------------------------------------------------------|

Guitar 2 (rythm)
e|------------------------------| |--| 
B|------------------------------| | 
G|------------------------------| |
D|------------------------------| |-play 5 times  
A|-----------2-2--2-2--2-2--2-2-| |
D|-----------2-2--2-2--2-2--2-2-| |--|

Guitar 2 Continued
e|--------|
B|--------|
G|--------|
D|--------| play this at end of every 5th repeat
A|--8~----|
D|--8~----|


Part B; Time = 0.57
Guitar 1 (Lead)
e|---------------------------------------------------------------------------|
B|---------------------------------------------------------------------------|
G|--------------------------------------------------------------17-16~-------|
D|---------9-10-12/17~~~-----------17-19--20(b)----17+--17-18----------------|
A|--7--------------------------------------------17--------------------------|
D|---------------------------------------------------------------------------|

Guitar 2 (rythm)
e|-----| |--------------------------| |--|                                          
B|-----| |--------------------------| |
G|-----| |--------------------------| |
D|-----| |--------------------------| | Play 5 Times
A|-8-8-| |-------2-2--2-2--2-2--2-2-| |
D|-8-8-| |-------2-2--2-2--2-2--2-2-| |--|

Guitar 2 Continued
e|--------|
B|--------|
G|--------|
D|--------| play this at end of every 5th repeat
A|--8~----|
D|--8~----|



Part C; Time = 1.19
Guitar 1&2
e|---------------------------------------------------------------------------|--|
B|---------------------------------------------------------------------------|
G|---------------------------------------------------------------------------|
D|---------------------------------------------------------------------------|Play 3 Times
A|-2-2--2-2--2-2--2-2--2-2--2-2--2-2--2-2--2-2--2-8~~------------------------|
D|-2-2--2-2--2-2--2-2--2-2--2-2--2-2--2-2--2-2--2-8~~------------------------|--|

e|---------------------------------------------------------------------------|  
B|---------------------------------------------------------------------------|      
G|---------------------------------------------------------------------------|     
D|---------------------------------------------------------------------------|   
A|-2-2--2-2--2-2--2-2--2-2--2-2--2-2--2-2--2---------------------------------|     
D|-2-2--2-2--2-2--2-2--2-2--2-2--2-2--2-2--2---------------------------------| 


Part D; Time = 1.40
Guitar 1
e|---------------------------------------------------------------------------|
B|---------------------------------------------------------------------------|
G|---------------------------------------------------------------------------|
D|-----5-7~---6-8-9~---8-9-12(b)-7--7-8-9~-----------------------------------|
A|-5-7-----------------------------------------------------------------------|
D|---------------------------------------------------------------------------|
*Guitar 2 continues rythm*



Part E; Time = 1.51
Guitar 1
e|---------------------------------------------------------------------------|
B|---------------------------------------------------------------------------|
G|------------------------12--12/15-14-12~~~---------------------------------|
D|-6-7-9---8-9-12---12-14----------------------------------------------------|
A|---------------------------------------------------------------------------|
D|-~-------------------------------------------------------------------------|

*Guitar 2 continues rythm*




Part F; Time = 2.03
Guitar 1
e|----------------------------------------------------------15--18-15-------------------------|
B|----------------------------------------------------15-17-----------15----------------------|
G|-----15-17~~--15-17-19~~--17-19-17-15---15-17-19~~~--------------------15-17-19-19-21-19-22-|
D|--17----------------------------------------------------------------------------------------|
A|--------------------------------------------------------------------------------------------|
D|--------------------------------------------------------------------------------------------|

Guitar 2 continues rythm


Outro; Time = 2.22


Guitar 2.
e|----------|
B|----------|
G|----------|
D|----------|
A|-8--------|
D|-8--------|


Then after outro play INTRO x 1 then MAIN RIFF.



INTRO -> MAIN RIFF -> Part A -> Part B -> Part C -> Part D -> Part E -> Part F -> OUTRO



===============================================================================
| /  slide up
| \  slide down
| h  hammer-on
| p  pull-off
| ~  vibrato
| +  harmonic
| x  Mute note
|(b) bend
===============================================================================
Suggest correction
Give kudos to tab author, rate the tab!
1 2 3 4 5
comments
print report bad tab
1 comment total.
0 reply
EpiExplorer 1,832 wrote on July 7 2008, 05:21 pm

intro was off, needs an 8 after the palm mute bits. also you left out the entire lead bit

guest
You may want to rate the tab now too:
select rating
Wanna post a correction for this tab? Suggest correction