Oops, an error
Loading. Please wait.

Dynasty Warriors 5 Theme Tab

version 2
version 2

Whole song

778 views 1 this week
no commentswrite comment
1 2 3 4 5
3 more votes to show rating
add to favorites
launch autoscroll
font size
0
reset
how to read this tab
guitar tuner
Autoscroll
slow
fast
+/-
esc
set tempo
stop
Help us to improve Ultimate-Guitar.com Take our survey!
×
Author
Difficulty
Tuning
novice
D A D G B E
-------------------------------------------------------------------------------
                             Ancient Heroes - Dynasty Warriors 5
-------------------------------------------------------------------------------
Tabbed by: iruka2998
Email: tbanez18@googlemail.com

Tuning: Drop D (DADGBe)*

Time = 0.07
e|---------------------------------------------------------------------------|
B|---------------------------------------------------------------------------|
G|---------------------------------------------------------------------------|
D|-2---4---5-------7-5--2---5---3------2---4---5-------7-5--2---5---3--------|----|Play 2 Times| 
A|-0---2---3---5-7------0---3---1------0---2---3---5-7------0---3---1--------|
D|---------------------------------------------------------------------------|

Time = 0.34 
e|---------------------------------------------------------------------------|
B|------------------------5h7/8-7-5------------------------------------------|
G|-9--7-5-4-5-4-2----9--7----------------------------------------------------|
D|---------------------------------------------------------------------------|----|Play 2 Times|
A|---------------------------------------------------------------------------|
E|---------------------------------------------------------------------------|

Time = 0.48
e|---------------------------------------------------------------------------|
B|---------------------------------------------------------------------------|
G|-10+-x-x-9+-x-x-10+-x-x-9+-x-x-10+-x-9+------------------------------------|
D|---------------------------------------------------------------------------|----|Play 4 Times| 
A|---------------------------------------------------------------------------|
D|---------------------------------------------------------------------------|

Time = 1.01
e|---------------------------------------------------------------------------|
B|------------------------5h7/8-7-5------------------------------------------|
G|-9--7-5-4-5-4-2----9--7----------------------------------------------------|
D|---------------------------------------------------------------------------|----|Play 4 Times|
A|---------------------------------------------------------------------------|
E|---------------------------------------------------------------------------|

Time = 1.29
e|---------------------------------------------------------------------------|
B|---------------------------------------------------------------------------|
G|---------------------------------------------------------------------------|
D|---------------------------------------------------------------------------|----|Play 4 Times|
A|-0~-1~-0~-1~-0-1-0~--------------------------------------------------------|
D|---------------------------------------------------------------------------|

Time = 1.43
e|---------------------------------------------------------------------------|
B|---------------------------------------------------------------------------|
G|---------------------------------------------------------------------------|
D|---------------------------------------------------------------------------|----|Play 4 Times|
A|-3~-4~-3~-4~-3-4-3~--------------------------------------------------------|
D|---------------------------------------------------------------------------|

Time = 1.56                                                           
e|----------------------------------------------------------18-15----15-18-----|
B|-15-------------15-------17-15------15--------------17-15-------18-----------|
G|----17-15----------17-15-------15------17-15h17p15~--------------------------|
D|----------15-----------------------------------------------------------------|
A|-----------------------------------------------------------------------------|
D|-----------------------------------------------------------------------------|

e|----------------------------------------------------------18-15----15-18-20+-|
B|-15-------------15-------17-15------15--------------17-15-------18-----------|
G|----17-15----------17-15-------15------17-15h17p15~--------------------------|
D|----------15-----------------------------------------------------------------|
A|-----------------------------------------------------------------------------|
D|-----------------------------------------------------------------------------|

Time = 2.25
e|---------------------------------------------------------------------------|
B|---------------------------------------------------------------------------|
G|---------------------------------------------------------------------------|
D|-2---4---5-------7-5--2---5---3------2---4---5-------7-5-------------------| 
A|-0---2---3---5-7------0---3---1------0---2---3---5-7-----------------------|
D|---------------------------------------------------------------------------|

Time = 2.38
e|---------------------------------------------------------------------------|
B|---------------------------------------------------------------------------|
G|---------------------------------------------------------------------------|
D|-2---4---5-------7-5--2---5---3------2---4---5-------7-5--2---5---3--------|
A|-0---2---3---5-7------0---3---1------0---2---3---5-7------0---3---1--------|
D|---------------------------------------------------------------------------|

Time = 2.52
e|---------------------------------------------------------------------------|
B|------------------------5h7/8-7-5------------------------------------------|
G|-9--7-5-4-5-4-2----9--7----------------------------------------------------|
D|---------------------------------------------------------------------------|----|Play 2 Times|
A|---------------------------------------------------------------------------|
E|---------------------------------------------------------------------------|

Time = 3.05
e|---------------------------------------------------------------------------|
B|---------------------------------------------------------------------------|
G|-10+-x-x-9+-x-x-10+-x-x-9+-x-x-10+-x-9+------------------------------------|
D|---------------------------------------------------------------------------|----|Play 4 Times| 
A|---------------------------------------------------------------------------|
D|---------------------------------------------------------------------------|

Time = 3.19
e|---------------------------------------------------------------------------|
B|------------------------5h7/8-7-5------------------------------------------|
G|-9--7-5-4-5-4-2----9--7----------------------------------------------------|
D|---------------------------------------------------------------------------|----|Play 4 Times|
A|---------------------------------------------------------------------------|
E|---------------------------------------------------------------------------|


Time = 3.46
e|---------------------------------------------------------------------------|
B|---------------------------------------------------------------------------|
G|---------------------------------------------------------------------------|
D|---------------------------------------------------------------------------|----|Play 4 Times|
A|-0~-1~-0~-1~-0-1-0~--------------------------------------------------------|
D|---------------------------------------------------------------------------|

Time = 4.00
e|---------------------------------------------------------------------------|
B|---------------------------------------------------------------------------|
G|---------------------------------------------------------------------------|
D|---------------------------------------------------------------------------|----|Play 4 Times|
A|-3~-4~-3~-4~-3-4-3~--------------------------------------------------------|
D|---------------------------------------------------------------------------|

Time = 4.14                                                          
e|----------------------------------------------------------18-15----15-18-----|
B|-15-------------15-------17-15------15--------------17-15-------18-----------|
G|----17-15----------17-15-------15------17-15h17p15~--------------------------|
D|----------15-----------------------------------------------------------------|
A|-----------------------------------------------------------------------------|
D|-----------------------------------------------------------------------------|

e|----------------------------------------------------------18-15----15-18-20+-|
B|-15-------------15-------17-15------15--------------17-15-------18-----------|
G|----17-15----------17-15-------15------17-15h17p15~--------------------------|
D|----------15-----------------------------------------------------------------|
A|-----------------------------------------------------------------------------|
D|-----------------------------------------------------------------------------|

Time = 4.41   Fade Out.
e|---------------------------------------------------------------------------|
B|---------------------------------------------------------------------------|
G|---------------------------------------------------------------------------|
D|-2---4---5-------7-5--2---5---3------2---4---5-------7-5-------------------| 
A|-0---2---3---5-7------0---3---1------0---2---3---5-7-----------------------|
D|---------------------------------------------------------------------------|



==============================================================================
|(b) bend
| /  slide up
| \  slide down
| h  hammer-on
| p  pull-off
| ~  vibrato
| +  harmonic
| x  Mute note
===============================================================================

*note:  (bottom string isnt used so use standard tuning if you want, makes no difference)
Suggest correction
Give kudos to tab author, rate the tab!
1 2 3 4 5
comments
print report bad tab
guest
You may want to rate the tab now too:
select rating
Wanna post a correction for this tab? Suggest correction