Oops, an error
Loading. Please wait.

Dynasty Warriors 7 - Kid Around Ska Tab

628 views 1 this week
no commentswrite comment
1 2 3 4 5
please rate
add to favorites
launch autoscroll
font size
0
reset
how to read this tab
guitar tuner
Tab Pro tools
  • play this tab
  • loop segment
  • change instrument
  • show fretboard
  • metronome
×
Best way to learn
"Dynasty Warriors 7 - Kid Around Ska"
Autoscroll
slow
fast
+/-
esc
set tempo
stop
Contributor
Song: Kid Around Ska
Artist: Dynasty Warriors Music
Tuning: Standard
Tabbed By: GuitarHawk99




Intro w/ wah effect
|---9---8---7---6--5-|
|---9---8---7---6--5-|
|--------------------|
|--------------------|
|--------------------|
|-9---8---7---6----5-|

Rhythm chord riff (played throughout song, quickly mute
 The chords after picking)
|----------------|
|-10-10-10-10-10-|
|-9--9--9--9--9--|
|----------------| x3
|----------------|
|----------------|

Main riff w/ wah & Distortion
|----------------------------------------------|
|-10-------10----------------------------------|
|-12b(14)-(14)r-9-12-9-9--------9--------------|
|----------------------12b(14)-(14)r-10-12-----| x2
|------------------------------------------12--|
|----------------------------------------------|

|---------------------------------------------------------------------------------
|--------------------------------------13-17-------17---17------------------------
|--------------------------------12-14----19b(21)-(21)-(21)r-17-19----------------
|-------10---------10-12-13-14~------------------------------------19-17----------
|-10-12----12\/-12-------------------------------------------------------19-18-17-
|---------------------------------------------------------------------------------

----------|
----------|
----------|
----------|
-15-------|
----17-15-|

|----------------|
|----------------|
|-8-tp-9--8-tp-9-|
|----------------|
|----------------|
|----------------|

|------------------------------------|
|----13-17-------17---17-------------|
|-14----19b(21)-(21)-(21)r-17--------|
|-----------------------------19-tp\-|
|------------------------------------|
|------------------------------------|

w/ Envelope effect
|-----------------------------------------------------|
|-----------------------------------------------------|
|---------------5------------x---x---x-5-7-7b(9)r-5---|
|-7-7-5-7-7-5-7---7--7-7-5-7-x-7-x-7-x--------------7-|
|-----------------------------------------------------|
|-----------------------------------------------------|


Main riff w/ wah & Distortion
|----------------------------------------------|
|-10-------10----------------------------------|
|-12b(14)-(14)r-9-12-9-9--------9--------------|
|----------------------12b(14)-(14)r-10-12-----| x2
|------------------------------------------12--|
|----------------------------------------------|

|---------------------------------------------------------------------------------
|--------------------------------------13-17-------17---17------------------------
|--------------------------------12-14----19b(21)-(21)-(21)r-17-19----------------
|-------10---------10-12-13-14~------------------------------------19-17----------
|-10-12----12\/-12-------------------------------------------------------19-18-17-
|---------------------------------------------------------------------------------

----------|
----------|
----------|
----------|
-15-------|
----17-15-|

|----------------|
|----------------|
|-8-tp-9--8-tp-9-|
|----------------|
|----------------|
|----------------|

---------------------------------------------------------|
----13-17-------17---17----------------------------------|
-14----19b(21)-(21)-(21)r-17-19--------------------------|
--------------------------------19-17--------------------|
--------------------------------------19-18-17--15-------|
---------------------------------------------------17-15-|

|----------------|
|----------------|
|-8-tp-9--8-tp-9-|
|----------------|
|----------------|
|----------------|

|----------------------------------------------------------|
|----13-17-------17---17-----------------------------------|
|-14----19b(21)-(21)-(21)r-17---------14b(17)-Slow-Release-|
|-----------------------------19-tp\-----------------------|
|----------------------------------------------------------|
|----------------------------------------------------------|
comments
We did not receive enough feedback on this tab! Please rate:
print report bad tab
1 2 3 4 5
I want to post or [tab]
guest
You may want to rate the tab now too:
select rating
Please do not post tabs as comments. Select "correction" instead!