Oops, an error
Loading. Please wait.

Earthbound - Runaway Five On The Move bass

49 views 3 this week
no commentswrite comment
1 2 3 4 5
3 more votes to show rating
add to favorites
×
Save as Personal and add changes to this tab that will be seen only by you. Learn more ›
×
You can save this tab as Personal to edit and correct it or add notes. All changes will be seen only by you. Learn more »
launch autoscroll
font size
0
reset
guitar tuner
edit
Autoscroll
slow
fast
+/-
esc
set tempo
stop
Author
Difficulty
Earthbound - Runaway Five on the Move

Tabbed by: Ash (XxThreeCheersxX)
email: burdickash@gmail.com

This was the hardest song on the soundtrack to tab out by far; if you find any errors, please let me know!

Listen closely to get a better sense of the rhythm.

Happy playing!

I.
G|---------------------------------------------|
D|---------------------------------------------|
A|---------------------------------------------| x 3
E|-3--3----3----3----3--3--3----3--3--0--1--2--|

G|---------------------------------------------|
D|---------------------------------------------|
A|---------------------------------------2--3--|
E|-3--3----3----3----3--3--3----3--3--5--------|

II.
G|----------------------------------------------------|
D|-3--3---------------------5--5----------------------|
A|-------0--0-1--1-1--3--3--------2--2--3--3-3--5--5--|
E|----------------------------------------------------|

G|------------------------------------------------------|
D|------------------------------------------------------|
A|-------------0-0-0--2--2---------0-0-0--2-2-2--3-3-3--|
E|-1-1-1-3--3---------------3-3-3-----------------------|

G|------------------------------------------------------|
D|-3-----5--3-------------------------------------------|
A|----3---------------------0-0-0--2-2-2--3-3-3--4-4-4--|
E|-------------1-1-1--3--3------------------------------|

G|--------------------------------------------------|
D|--------------------------------------------------|
A|-5-5--5-5-5--5-5-5--5--3--5--5--5--5\-------------|
E|-----------------------------------------2--3--5--|

G|---------------------------------------------|
D|---------------------------------------------|
A|-5-5--5-5-5--5-5-5--5--3--5------------------|
E|----------------------------0----2----3----5-|

III.
G|-----------------------------------------------|
D|-----------5-5----3----------------------------|
A|---------------5-----5--3--3----3--3-----------| x 2
E|-3--3----3----------------------------0--1--2--|

Cycle back to one and repeat!
************************************

| x   Dead note
| g   Grace note
| (n) Ghost note
| h   Hammer-on
| p   Pull-off
| r   Release
| >   Accented note
| t   Tapping
| b   Bend
| br  Bend release
| pb  Pre-bend
| pbr Pre-bend release
| /   Slide up
| \   Slide down
| ~   Vibrato
| s   Slap
| P   Pop
| PM  Palm mute
| TR  Trill
| N   Tremolo

************************************

            
            
Suggest correction
Creating personal tab
Creating personal tab
You can edit any tab online and save it as your Personal.

You can edit, replace or remove any tab part or add personal notes – all changes will be seen only by you.

Personal tabs can be accessed anytime from any device, even offline.
Learn more »
Give kudos to tab author, rate the tab!
1 2 3 4 5
comments
print report bad tab
guest
You may want to rate the tab now too:
select rating
Wanna post a correction for this tab? Suggest correction