Oops, an error
Loading. Please wait.

Earthbound - The Final Battle Tab

1,173 views 1 this week
no commentswrite comment
1 2 3 4 5
please rate
add to favorites
launch autoscroll
font size
0
reset
how to read this tab
guitar tuner
Tab Pro tools
  • play this tab
  • loop segment
  • change instrument
  • show fretboard
  • metronome
Autoscroll
slow
fast
+/-
esc
set tempo
stop
Contributor
Tabbed by: Michael Anthony Dias
Email: Theshadowtiger@sbcglobal.net

Tuning: Standard

the 8-bit intro

e|-------------------------------------------------------------------------|
B|--------------------------14-14--14-14--14-14--14--14--14-14-------------|
G|--8-10--8-11--8-10--8-11--14-14--14-14--14-14--14--14--14-14-------------|
D|--------------------------------------------------------------9-8-9-10-12|
A|-------------------------------------------------------------------------|
E|-------------------------------------------------------------------------|

e|----------------|
B|----------------|
G|----------------|
D|----11--10---14-|
A|11---10---9-----|
E|--10---9---8----|

e|------------------------------------|  x2
B|------------------------------------|
G|------------------------------------|
D|-----------------4-----4---6--9-7-6-|
A|5--7-5-7--5--7-5----5----5----------|
E|------------------------------------|


e|----------------------------------------------------------------------|
B|-8-------7-------6-------5-------------6----------8------8---8---8-8--|
G|--7-7-7---6-6-6---5-5-5---4-4-4---5-5-5-5-5--7-7-7-7-7----77--77--7-7-|
D|---6-6-6---5-5-5---4-4-4---3-3-3---4-4---4----6-6---6-----------------|
A|----------------------------------------------------------------------|
E|----------------------------------------------------------------------|

e|-------------|
B|-7--7---7-7--|
G|--66-66--6-6-|
D|-------------|
A|-------------|
E|-------------|

e|------------------|   x2
B|------------------|
G|-7--9--10-9--7--6-|
D|------------------|
A|------------------|
E|------------------|

e|------|   e|----------| x4
B|--x\--|   B|----------|
G|--x\--|   G|-4-5--4-6-|
D|--x\--|   D|-4-5--4-6-|
A|------|   A|-4-5--4-6-|
E|------|   E|----------|


e|----------------------------------|  x2
B|----------------------------------|
G|----------------------------------|
D|----------------------------------|
A|-----6666------------7777---------|
E|-4444----444422224444----44442222-|


e|--------------------------|
B|--------------------------|
G|--------------------------|
D|--------------------------|
A|--------------------------|
E|-66-66-6-6\5--66-66-6-6/7-|

e|----------------------------------------------|  x3
B|-7-7-9\8-8--7-7-10\9-9--7-7-9\8-8--7-7-11~\10-|
G|-7-7-9\8-8--7-7-10\9-9--7-7-9\8-8--7-7-11~\10-|
D|-7-7-9\8-8--7-7-10\9-9--7-7-9\8-8--7-7-11~\10-|
A|----------------------------------------------|
E|----------------------------------------------|

e|-----------------------------|
B|-----------------------------|
G|-----------------------------|
D|-----------------------------|
A|-----------------------------|
E|-66-67-78-5--66-67-78-9--10~-|

e|--------------------------------|  x2  then loop
B|--------------------------------|
G|--------------------------------|
D|--------------------------------|
A|--------------------------------|
E|-6-6-666-7-5-4--666666-7~-8-10~-|

| /  slide up
| \  slide down
| h  hammer-on
| p  pull-off
| ~  vibrato
| +  harmonic
| x  Mute note
comments
We did not receive enough feedback on this tab! Please rate:
print report bad tab
1 2 3 4 5
I want to post or [tab]
guest
You may want to rate the tab now too:
select rating
Please do not post tabs as comments. Select "correction" instead!