Oops, an error
Loading. Please wait.

Egg Golem Theme Tab

version 1
version 1

Whole song

Interactive

169 views 1 this week
1 commentread comment
1 2 3 4 5
please rate
add to favorites
launch autoscroll
font size
0
reset
how to read this tab
guitar tuner
Autoscroll
slow
fast
+/-
esc
set tempo
stop
Help us to improve Ultimate-Guitar.com Take our survey!
×
Author
Difficulty
novice
This is just my powertab converted to a written file for easy use.
Great song to play, just figured it out an 1hour ago XD
Enjoy playing!

Olij92
   

 Gtr I
||--------------------------|-----------------------|---------------------|
||o-------------------------|-----------------------|---------------------|
||--10-10----10----10----10-|--8--8----8----8----8--|--6--6----6----6--6--|
||--10-10----10----10----10-|--8--8----8----8----8--|--6--6----6----6--6--|
||o--8--8-----8-----8-----8-|--6--6----6----6----6--|--4--4----4----4--4--|
||--------------------------|-----------------------|---------------------|
|
|   Gtr II
||--------------------------|-----------------------|---------------------|
||o-------------------------|-----------------------|---------------------|
||--10-10-10----13----13----|-12-12-12---15---15----|-13-13-13---10-------|
||--------------------------|-----------------------|---------------------|
||o-------------------------|-----------------------|---------------------|
||--------------------------|-----------------------|---------------------|


|----------------|----------------------|-----------------|-----------------------|
|----------------|----------------------|-----------------|-----------------------|
|--5-5--5--5--5--|--3-3----3----3----3--|--5-5---5--5--5--|--6-6----6----6---6----|
|--5-5--5--5--5--|--3-3----3----3----3--|--5-5---5--5--5--|--6-6----6----6---6----|
|--3-3--3--3--3--|--1-1----1----1----1--|--3-3---3--3--3--|--4-4----4----4---4----|
|----------------|----------------------|-----------------|-----------------------|
|
|----------------|----------------------|-----------------|-----------------------|
|----------------|----------------------|-----------------|-----------------------|
|-12----9--------|-10-8------15---13----|-12---8----------|-10-8------10----13----|
|----------------|------10--------------|-----------------|------11---------------|
|----------------|----------------------|-----------------|-----------------------|
|----------------|----------------------|-----------------|-----------------------|


                         4x
|------------------|-----||
|------------------|----o||
|--8-8----8--8--8--|-----||
|--8-8----8--8--8--|-----||
|--6-6----6--6--6--|----o||
|------------------|-----||
|
|                        4x
|------------------|-----||
|------------------|----o||
|-15S==17----------|-----||
|------------------|-----||
|------------------|----o||
|------------------|-----||


||--------------------|-------------------|-------------------|--------||
||o-------------------|-------------------|-------------------|-------o||
||--10-10--10--11--11-|-10-10--10--13--13-|-10-10--10--11--11-|-10-----||
||--10-10--10--11--11-|-10-10--10--13--13-|-10-10--10--11--11-|-10-----||
||o--8--8---8---9---9-|--8--8---8--11--11-|--8--8---8---9---9-|--8----o||
||--------------------|-------------------|-------------------|--------||



***************************************************************************************
* Generated using Power Tab Editor by Brad Larsen - http://powertab.guitarnetwork.org *
Suggest correction
Give kudos to tab author, rate the tab!
1 2 3 4 5
comments
print report bad tab
1 comment total.
0 reply
17thmoon 281 wrote on May 12 2011, 06:02 pm

Nice tab. I made a guitar pro of the whole thing that you should check out.

guest
You may want to rate the tab now too:
select rating
Wanna post a correction for this tab? Suggest correction