Oops, an error
Loading. Please wait.

Eternity Memory Of Lightwaves Tab

version 1
version 1

Whole song

Interactive

6,913 views 18 this week
no commentswrite comment
1 2 3 4 5
x 3
add to favorites
launch autoscroll
font size
0
reset
how to read this tab
guitar tuner
×
Best way to learn
"Eternity Memory Of Lightwaves"
Autoscroll
slow
fast
+/-
esc
set tempo
stop
Author
Difficulty
  follow
novice
Artist: Misc Computer Games
Song: Eternity Memory Of Lightwaves

    E  E  E  E  E  E     E  E  E  E  E  E     E  E  E  E  E  E
e|--------------3-----|--------------3--0--|--------------3-----|
B|-----------------3--|--------------------|-----------0-----3--|
G|-----------0--------|--------0--2--------|--------2-----------|
D|--------3-----------|-----0--------------|-----2--------------|
A|-----3--------------|--------------------|--0-----------------|
E|--1-----------------|--3-----------------|--------------------|

    E  E  E  E  E  E  3x  E  E  E  E  E  E     E  E  E  E  E  E
e|--------------3------|--------------3-----|--------------3--0--|
B|-----------------1---|-----------------3--|--------------------|
G|-----------0--------*|-----------0--------|--------0--2--------|
D|--------4-----------*|--------3-----------|-----0--------------|
A|-----2---------------|-----3--------------|--------------------|
E|--0------------------|--1-----------------|--3-----------------|

    E  E  E  E  E  E     E  E  E  E  E  E     E  E  E  E  E  E
e|--------------3-----|--------------3-----|--------------------|
B|-----------0-----3--|-----------------0--|--1-----0-----------|
G|--------2-----------|-----------0--------|-----------0-----0--|
D|-----2--------------|--------4-----------|--------------------|
A|--0-----------------|-----2--------------|-----3--------3-----|
E|--------------------|--0-----------------|--1-----------------|

    E  E  E  E  E  E     E  E  E  E  E  E     E  E  E  E  E  E
e|--------------------|--------------------|--------------------|
B|--1-----0-----------|--------0--0--------|--------------0-----|
G|-----------0--------|--------------0-----|-----------0--------|
D|-----0-----------3--|--2--------------2--|--------4--------0--|
A|--------------5-----|-----0--------------|-----2--------------|
E|--3-----------------|--------------------|--0-----------------|

    E  E  E  E  E  E     E  E  E  E  E  E     E  E  E  E  E  E
e|--------------------|--------------------|--------------------|
B|--1-----0-----------|--1-----0-----------|--------3--3--------|
G|-----------0-----0--|-----------0--------|--------------0-----|
D|--------------------|-----0-----------3--|--2--------------2--|
A|-----3--------3-----|--------------5-----|-----0--------------|
E|--1-----------------|--3-----------------|--------------------|

    E  E  E  E  E  E     E  E  E  E  E  E     E  E  E  E  E  E
e|--------0-----------|--------------------|--------------------|
B|--3--------0--------|--1-----0-----------|--1-----0-----------|
G|-----0--------0-----|-----------0-----0--|-----------0--------|
D|-----------------0--|--------------------|-----0-----------3--|
A|--------------------|-----3--------3-----|--------------5-----|
E|--0-----------------|--1-----------------|--3-----------------|

    E  E  E  E  E  E     E  E  E  E  E  E     E  E  E  E  E  E
e|--------------------|--------------------|--------------------|
B|--------0--0--------|--0-----------0-----|--1-----0-----------|
G|-----------------2--|-----------0--------|-----------0-----0--|
D|--2-----------2-----|--------4--------0--|--------------------|
A|-----0--------------|-----2--------------|-----3--------3-----|
E|--------------------|--0-----------------|--1-----------------|

    E  E  E  E  E  E     E  E  E  E  E  E     E  E  E  E  E  E
e|-----------------1--|--0-----1--3-----0--|--------0-----------|
B|--1-----0-----------|-----1--------0-----|--3--------1-----0--|
G|-----------0--------|--------------------|-----0--------0-----|
D|-----0--------0-----|--------------------|--------------------|
A|--------------------|--0-----------------|--------------------|
E|--3-----------------|-----------0--------|--1--------3--------|

    E  E  E  E  E  E     E  E  E  E  E  E     E  E  E  E  E  E
e|--------------3-----|--------------3--0--|--------------3-----|
B|-----------------3--|--------------------|-----------0-----3--|
G|-----------0--------|--------0--2--------|--------2-----------|
D|--------3-----------|-----0--------------|-----2--------------|
A|-----3--------------|--------------------|--0-----------------|
E|--1-----------------|--3-----------------|--------------------|

    E  E  E  E  E  E     E  E  E  E  E  E     E  E  E  E  E  E
e|--------------3-----|--------------3-----|--------------3--0--|
B|-----------------1--|-----------------3--|--------------------|
G|-----------0--------|-----------0--------|--------0--2--------|
D|--------4-----------|--------3-----------|-----0--------------|
A|-----2--------------|-----3--------------|--------------------|
E|--0-----------------|--1-----------------|--3-----------------|

                                              ^                 ^
    E  E  E  E  E  E     E  E  E  E  E  E     Q.     Q    E     Q.     E  E  E
e|--------------3-----|--------------0--1--|--3------3----5--|--3---------------|
B|-----------0-----3--|--------------------|--1------1-------|--1---------------|
G|--------2-----------|-----------0--------|--0------0-------|--0------------0--|
D|-----2--------------|--------4-----------|-----------------|------------3-----|
A|--0-----------------|-----2--------------|-----------------|---------3--------|
E|--------------------|--0-----------------|--1--------------|--1---------------|

    ^                                       ^
    H        E  S S    E  E  E  E  E  E     Q    E  Q.        E  E  E  E  E  E
e|--------------0-1-|--3--------1-----0--|-------0--0------|--------------------|
B|--0--------L------|--------0-----------|--3--------------|--3--------1-----0--|
G|--0--------L------|-----0--------0-----|--2--------------|--------2-----------|
D|--0--------L------|--------------------|--2--------------|-----2--------2-----|
A|------------------|--------------------|--0--------------|--0-----------------|
E|--3--------L------|--3-----------------|-----------------|--------------------|

    ^
    Q    E  Q.        E  E  E  E  E  E     E  E  E  E  E  E
e|-------3--0------|--------------------|--------------------|
B|--3--------------|-----------0--------|--1--------0--------|
G|--0--------------|--------0--------0--|--------------------|
D|--0--------------|-----0--------0-----|--------3--------3--|
A|-----------------|--------------------|-----3--------3-----|
E|--3--------------|--3-----------------|--1-----------------|

    E  E  E  E  E  E     E  E  E  E  E  E     E  E  E  E  E  E
e|--------------------|--------------------|--------------------|
B|-----------0--------|--1--------0--------|--1--------3--------|
G|--2-----------------|--------0--------0--|--------0--------0--|
D|--------3--------3--|-----0--------0-----|-----0--------0-----|
A|-----3--------3-----|--------------------|--------------------|
E|--------------------|--3-----------------|--------------------|

    E  E  E  E  E  E     E  E  E  E  E  E     E  E  E  E  E  E
e|--------------------|--------------------|--------------------|
B|--1--------0--------|-----------0--------|--1--------0--------|
G|--------------------|--2-----------------|--------0--------0--|
D|--------3--------3--|--------3--------3--|-----0--------0-----|
A|-----3--------3-----|-----3--------3-----|--------------------|
E|--1-----------------|--------------------|--3--------3--------|

                         ^                                    NH
                              |--3--|  |--3--|     |--3--|
    E  E  E  E  E  E     Q    E  E  E  E  E  E     E  E  E    H
e|--------------------|-------------------------|--------3-------------|
B|--1--------3--------|--0-------------------3--|-----3----------------|
G|--------0--------0--|--0----------0-----0-----|--0----------7--------|
D|-----0--------0-----|--0-------0-----0--------|----------------------|
A|--------------------|-------------------------|----------------------|
E|--3--------3--------|--3----3-----------------|----------------------|

    ^                   ^                   ^
    Q    E  E  E  E     Q    E  E  E  E     Q    E  E  E  E
e|-------------------|-------------------|-------------------|
B|--1----0-----------|--1----0-----------|-------0--0--------|
G|--0-------0-----0--|--0-------0--------|-------------0-----|
D|-------------------|--0-------------3--|--2-------------2--|
A|-------------------|-------------------|--0----------------|
E|--1----------1-----|--3----------3-----|-------------------|

                         ^                   ^
    E  E  E  E  E  E     Q    E  E  E  E     Q    E  E  E  E
e|--------------------|-------------------|-------------------|
B|--------------0--3--|--1----0-----------|--1----0-----------|
G|-----------0--------|--0-------0-----0--|--0-------0--------|
D|--------4-----------|-------------------|--0-------------3--|
A|-----2--------------|-------------------|-------------------|
E|--0-----------------|--1----------1-----|--3----------3-----|

    ^                   ^                   ^                   ^
    Q    E  E  E  E     Q    E  E  E  E     Q    E  E  E  E     Q    E  E  E  E
e|-------------------|-------0-----------|-------------------|-------------------|
B|-------3--3--------|--3-------0--------|--1----0-----------|--1----0-----------|
G|-------------0-----|--0----------0-----|--0-------0-----0--|--0-------0--------|
D|--2-------------2--|--0-------------2--|-------------------|--0-------------3--|
A|--0----------------|-------------------|-------------------|-------------------|
E|-------------------|--0----------------|--1----------1-----|--3----------3-----|

    ^                                        ^
    Q    E  E  E  E     E  E  E  E  E  E     Q    E  E  E  E
e|-------------------|--------------------|-------------------|
B|-------0--0--------|--0-----------0--3--|--1----0-----------|
G|----------------2--|-----------0--------|--0-------0-----0--|
D|--2----------2-----|--------4-----------|-------------------|
A|--0----------------|-----2--------------|-------------------|
E|-------------------|--0-----------------|--1----------1-----|

    ^                   ^       ^          ^       ^
    Q    E  E  E  E     Q    E  Q    E     Q    E  Q    E    E  E  E  E  E  E
e|----------------1--|--0----1--3----0--|-------0----------|-------------3-----|
B|--1----0-----------|--1-------0-------|--3-------1----0--|----------------3--|
G|--0-------0--------|--0-------0-------|--0-------0-------|*---------0--------|
D|--0----------------|------------------|--0-------0-------|*------3-----------|
A|-------------------|--0---------------|------------------|----3--------------|
E|--3----------3-----|----------0-------|--1-------3-------|-1-----------------|

    E  E  E  E  E  E     E  E  E  E  E  E     E  E  E  E  E  E   3x
e|--------------3--0--|--------------3-----|--------------3------|
B|--------------------|-----------0-----3--|-----------------1---|
G|--------0--2--------|--------2-----------|-----------0--------*|
D|-----0--------------|-----2--------------|--------4-----------*|
A|--------------------|--0-----------------|-----2---------------|
E|--3-----------------|--------------------|--0------------------|

    E  E  E  E  E  E     E  E  E  E  E  E     E  E  E  E  E  E
e|--------------3-----|--------------3--0--|--------------3-----|
B|-----------------3--|--------------------|-----------0-----3--|
G|-----------0--------|--------0--2--------|--------2-----------|
D|--------3-----------|-----0--------------|-----2--------------|
A|-----3--------------|--------------------|--0-----------------|
E|--1-----------------|--3-----------------|--------------------|

    E  E  E  E  E  E     H.
e|-----------------0--|--L------------|
B|--------------0-----|---------------|
G|-----------0--------|---------------|
D|--------4-----------|---------------|
A|-----2--------------|---------------|
E|--0-----------------|---------------|

Duration Legend
---------------
W - whole
H - half
Q - quarter
E - 8th
S - 16th
T - 32nd
X - 64th
. - note dotted
|-n-|  - n-tuplets

Tablature Legend
----------------
L - tied note
NH - natural harmonic
^ - brush up
Suggest correction
Give kudos to tab author, rate the tab!
1 2 3 4 5
comments
print report bad tab
guest
You may want to rate the tab now too:
select rating
Wanna post a correction for this tab? Suggest correction