Oops, an error
Loading. Please wait.

Everquest Theme Tab

611 views 1 this week
no commentswrite comment
1 2 3 4 5
please rate
add to favorites
launch autoscroll
font size
0
reset
how to read this tab
guitar tuner
Autoscroll
slow
fast
+/-
esc
set tempo
stop
Help us to improve Ultimate-Guitar.com Take our survey!
×
Author
Difficulty
novice
----------------------------------------------------------------------------             
Jay Barbeau - Everquest Theme
----------------------------------------------------------------------------
Tabbed by: Nameless742
E-mail: Scotcoxy2204@yahoo.co.uk

Tuning: Standard

e|-----------------|----------------|------------------|-----------------|
B|-----------------|----------------|------------------|-----------------|
G|-----------------|-----5----------|-----5-8--7-5-7---|-7--7-8-5~-------|
D|-5---5-8--7-5-7--|-5-----8--5-7-8-|-5--------------8-|-----------------|
A|---7-----------8-|---7------------|---7--------------|-----------------|
E|-----------------|----------------|------------------|-----------------|


e|-------------6-8-10-|-10----10-13--12-10-12----|-10----15-13---10-12-13---|
B|-------6-8-9--------|----12-----------------13-|----12--------------------|
G|-5-7-8--------------|--------------------------|--------------------------|
D|--------------------|--------------------------|--------------------------|
A|--------------------|--------------------------|--------------------------|
E|--------------------|--------------------------|--------------------------|


e|-10----15-18--17-15-17----|-17--18-17-15----------------------------------|
B|----12-----------------18-|-----------------------------------------------|
G|--------------------------|-----------------------------------------------|
D|--------------------------|-----------------------------------------------|
A|--------------------------|-----------------------------------------------|
E|--------------------------|-----------------------------------------------|



This is the main melody before the B section and key change of the song.
I tabbed this out from the original 1999 theme I found on youtube.
Enjoy learning the song :)
Suggest correction new What's this?
You can suggest a correction to this tab. Community and Mods will review your correction and vote to approve or reject it.
comments
We did not receive enough feedback on this tab! Please rate:
print report bad tab
1 2 3 4 5
guest
You may want to rate the tab now too:
select rating
Please do not post tabs as comments. Select "correction" instead!