Oops, an error
Loading. Please wait.

Excitebike Theme Tab

version 1
version 1

Whole song

Interactive

1,336 views 1 this week
no commentswrite comment
1 2 3 4 5
3 more votes to show rating
add to favorites
launch autoscroll
font size
0
reset
how to read this tab
guitar tuner
Autoscroll
slow
fast
+/-
esc
set tempo
stop
Help us to improve Ultimate-Guitar.com Take our survey!
×
Author
-------------------------------------------------------------------------------
                             Excitebike Theme for Nintendo
-------------------------------------------------------------------------------
Game: Excitebike
Song: all songs from game
Platform: Nintendo

Tabbed by: deathx88
Email: deathx88@yahoo.com

Tuning: Standard




Title Screen Song (guitar 1)


     E  S S S S S S S S S S Q       E   S S  S S  S S  S  S S  S Q     
E||-------------8---------8------|---------------12-----------12------|
B||---------8---------8----------|----------12-----------12-----------|
G||-----9-----------9------------|-----13-------------13--------------|
D||------------------------------|------------------------------------|
A||------------------------------|------------------------------------|
E||------------------------------|------------------------------------|


      |-3|         |-3|       |-3| 3    3                                    
  E   E  S  S T T  E  S  S S  E  S E  S X S.    S S S S S S S S S Q    E  S  
-----10--8-10---8----------------------------|------------------8-----------|
------------------10--8----------------------|----5---6---7---8-------------|
------------------------10---10--9-8--7------|--5---------------------------|
---------------------------------------------|------------------------------|
---------------------------------------------|------------------------------|
---------------------------------------------|------------------------------|




Title Screen Song (guitar 2)


     E  S S S S S S S S S S Q       E  S S S S S S S S S S Q     
E||-------------3---------3------|-------------7---------7------|
B||---------5---------5----------|---------9---------9----------|
G||-----5-----------5------------|-----9-----------9------------|
D||------------------------------|------------------------------|
A||------------------------------|------------------------------|
E||------------------------------|------------------------------|


     |-3| |-3| |-3|     |-3|                                          
  E  E  S E  S E  S S S E  S S T S S.    S S S S S S S S S Q    E  S  
-----5--5-5--5------------------------|------------------------------|
---------------6--6-------------------|----------------6-5-----------|
--------------------7---7--5-3---4----|----5---5---7-----------------|
--------------------------------------|--5---------------------------|
--------------------------------------|------------------------------|
--------------------------------------|------------------------------|




Race Starting Song (guitar 1)


   E.   E.   E.   S  S  S  E.   S    E   S  S  S  E.   S  S  S  E.   E   
-----------------13-12---------15-|--L--13-15-17------------15------12--|
--11---13---15---------13-15------|--------------18---17-18----15-------|
----------------------------------|-------------------------------------|
----------------------------------|-------------------------------------|
----------------------------------|-------------------------------------|
----------------------------------|-------------------------------------|


  S  T  T  T  T  T  T  E.   E.  Q    S S  
--L--------------------------------------|
-----------------------------------------|
--------------------------------7----L---|
-------10----10----10-10---10------------|
----11----11----11-----------------------|
-----------------------------------------|




Race Starting Song (guitar 2)


  T T T T T T T T T T T T T T T T T T S S S E.  S  
--1-3-1-3-1-3-3-5-3-5-3-5-5-6-5-6-5-6-8-7---5---7-|
------------------------------------------8-------|
--------------------------------------------------|
--------------------------------------------------|
--------------------------------------------------|
--------------------------------------------------|


  E  S  S  S  E.   S  S  S  E.   E     S  S  S  S E.  E.  E.  E  S  
--L--8-10-12------------10----------|---------------------5--------|
-------------13---12-13----11-------|-------------8---8------------|
--------------------------------12--|--L-10-10-10------------------|
------------------------------------|------------------------------|
------------------------------------|------------------------------|
------------------------------------|------------------------------|




Ranking Screen Song (guitar 1)


  Q    E  E  E  E  E  E     E  E  E  E  E  E  E  E   
-------------------------|--------------------------|
-------5-----------5-----|--------5-----5-----5-----|
----------5-----5-----5--|-----5-----7-----7-----7--|
-------------------------|--------------------------|
-------------------------|--------------------------|
-------------------------|--------------------------|


  E  E  E  S S S S S S E  S S    S S S S S E  E  E  S Q             
------------------------------|----------------------------|
--5-----6------6-----6-8------|--8-----8------------6-8----|
-----7-----5-----5--------4-4-|----4-4-----4--5--7---------|
-------------7-----7----------|----------7-----------------|
------------------------------|----------------------------|
------------------------------|----------------------------|




Ranking Screen Song (guitar 2)


  S S E   E.  E  S E   E.  S    S S E  E  E  S E  Q    S  
---------10---8-------10---8-|--L------7--7--7-8--7----L-|
------8------------8---------|------8--------------------|
----9------------9-----------|----9----------------------|
-----------------------------|---------------------------|
-----------------------------|---------------------------|
-----------------------------|---------------------------|


  E  E  E  S S S S S S E  S S    S S S S S E  E  E  S Q     
--L--7--5------5-----5-7------|--7-----7--------------8----|
-----------6-----6--------6---|----6-------5--6--7--8------|
-------------7-----7--------7-|------7---7-----------------|
------------------------------|----------------------------|
------------------------------|----------------------------|
------------------------------|----------------------------|




Pause Screen Jingle


   S  S  S  S  S  S  S  Q    Q    S   
--20----20----20----20--------------||
-----20----20----20----20-----------||
------------------------------------||
------------------------------------||
------------------------------------||
------------------------------------||




Duration Legend
---------------
W - whole
H - half
Q - quarter
E - 8th
S - 16th
T - 32nd
X - 64th
. - note dotted
|-n-|  - n-tuplets


Tablature Legend
----------------
L - tied note
x - dead note
g - grace note
(n) - ghost note
> - accentuded note
NH - natural harmonic
AH - artificial harmonic
TH - tapped harmonic
SH - semi harmonic
PH - pitch harmonic
h - hammer on
p - pull off
b - bend
br - bendRelease
pb - preBend
pbr - preBendRelease
brb - bendReleaseBend
\n/ - tremolo bar dip
\n - tremolo bar dive
-/n - tremolo bar Release up
/n\ - tremolo bar inverted dip
/n - tremolo bar return
-\n - tremolo bar Release down
S - shift slide
s - legato slide
/ -  slide into from below or out of upwards
\ -  slide into from above or out of downwards
~ - vibrato
W - wide vibrato
tr - trill
TP - tremolo picking
T - tapping
S - slap
P - pop
< - fade in
^ - brush up
v - brush down
Suggest correction
Give kudos to tab author, rate the tab!
1 2 3 4 5
comments
print report bad tab
guest
You may want to rate the tab now too:
select rating
Wanna post a correction for this tab? Suggest correction