Oops, an error
Loading. Please wait.

F-Zero - Big Blue bass

version 1
version 1

Whole song

Interactive

139 views 3 this week
no commentswrite comment
1 2 3 4 5
3 more votes to show rating
add to favorites
×
Save as Personal and add changes to this tab that will be seen only by you. Learn more ›
×
You can save this tab as Personal to edit and correct it or add notes. All changes will be seen only by you. Learn more »
launch autoscroll
font size
0
reset
guitar tuner
edit
Autoscroll
slow
fast
+/-
esc
set tempo
stop
Author
Difficulty
-------------------------------------------------------------------------------------------------------------
                                           F-Zero - Big Blue
-------------------------------------------------------------------------------------------------------------


This song can be played one of 2 ways in order to hit a low E flat that pops up in the middle of the song:
1. On a 5-string bass in standard tuning
2) On a regular 4-string tuned down a half step

For everyone's convenience, i tabbed both out.


-------------------------------
 5-STRING VERSION:
-------------------------------

[Intro]

The intro is essentially one riff repeated with a couple different fills thrown in.

Intro Riff:
G|---------------------------|
D|--8-----8-6-----6-----6-8--|
A|---------------------------|  x2
E|---------------------------|
B|---------------------------|

Fill 1:
G|--------6-5------|
D|----6-8-----6-8--|
A|--8--------------|
E|-----------------|
B|-----------------|

Intro Riff:
G|---------------------------|
D|--8-----8-6-----6-----6-8--|
A|---------------------------|
E|---------------------------|
B|---------------------------|

Fill 2:
G|------------6-5--|
D|----6-8---6------|
A|--8--------------|
E|-----------------|
B|-----------------|

Intro Ending:
G|---------------------------|
D|--8-----8-6-----6-----6----|
A|------------------------8--|
E|---------------------------|
B|---------------------------|


[MAIN PART]

Main Part A:
G|----------------------------------------------------------------------------------------------------------
D|----------------------------------------------------------------------------------------------------------
A|------------------------------------------------------4-3---4-3-------------------------------------------
E|--6-6-6-6-6-6-6-6-6-6-6-6-6-6-6-6-4-4-4-4-4-4-4-4---------4-----4-----6-6-6-6-6-6-6-6-6-6-6-6-6-6-6-6-4-4-
B|----------------------------------------------------------------------------------------------------------

G|----------------------------------------------------------------------------------------------------------|
D|----------------------------------------------------------------------------------------------------------|
A|-------------------4-3--4---3-----------------------------------------------------------------------------|
E|-4-4-4-4-4-4-----4--------------2--2---2--------2---4--------4---4----2---2----2---1-----------------2-2-2|
B|----------------------------------------------------------------------------------------------4---4-------|

G|-----------------------------------------------------|
D|-----------------------------------------------------|
A|-----------------------------------------------------|
E|-2-2-2-2-2-4-4-4-4-4-4-4-4-6----------------6---4--3-|
B|-----------------------------------------------------|

Main Part B:
G|----------------------------------------------------------------------------------------------------------|
D|----------------------------------------------------------------------------------------------------------|
A|----------------------------------------------------------------------------------------------------------|
E|-2-2-2-2-2-2-2-2-2-2-2-2-2-2-2-2-1-1-1-1-1-1-1-1-1-1-1-1-1-1-1-1-2-2-2-2-2-2-2-2-2-2-2-2-2-2-2-2-1-1-1-1-1|
B|----------------------------------------------------------------------------------------------------------|

G|-------------------------|
D|-------------------------|
A|----------------4-3-1----|  x2
E|-1-1-1----1-4-1-------4--|
B|-------------------------|

Main Part C (Outro):
G|----------------------------------------------------------------------------------------------------------|
D|----------------------------------------------------------------------------------------------------------|
A|----------------------------------------------------------------------------------------------------------|
E|-2-2-2-2-2-2-2-2-2-2-2-2-2-2-2-2-1-1-1-1-1-1-1-1-1-1-1-1-1-1-1-1-2-2-2-2-2-2-2-2-2-2-2-2-2-2-2-2-1-1-1-1--|
B|----------------------------------------------------------------------------------------------------------|

G|----------------------|
D|----------------------|
A|----------------------|
E|-1--1--1-----1-4-1-4--|
B|----------------------|



-----------------------------
 HALF-STEP DOWN VERSION:
-----------------------------


[Intro]

The intro is essentially one riff repeated with a couple different fills thrown in.

Intro Riff:
Gb|---------------------------|
Db|--9-----9-7-----7-----7-9--|
Ab|---------------------------|  x2
Eb|---------------------------|

Fill 1:
Gb|--------7-6------|
Db|----7-9-----7-9--|
Ab|--9--------------|
Eb|-----------------|

Intro Riff:
Gb|---------------------------|
Db|--9-----9-7-----7-----7-9--|
Ab|---------------------------|
Eb|---------------------------|

Fill 2:
Gb|------------7-6--|
Db|----7-9---7------|
Ab|--9--------------|
Eb|-----------------|

Intro Ending:
Gb|---------------------------|
Db|--9-----9-7-----7-----7----|
Ab|------------------------9--|
Eb|---------------------------|


[MAIN PART]

Main Part A:
Gb|----------------------------------------------------------------------------------------------------------|
Db|----------------------------------------------------------------------------------------------------------|
Ab|------------------------------------------------------5-4---5-4-------------------------------------------|
Eb|--7-7-7-7-7-7-7-7-7-7-7-7-7-7-7-7-5-5-5-5-5-5-5-5---------5-----5-----7-7-7-7-7-7-7-7-7-7-7-7-7-7-7-7-5-5-|

Gb|----------------------------------------------------------------------------------------------------------|
Db|----------------------------------------------------------------------------------------------------------|
Ab|-------------------5-4--5---4-----------------------------------------------------------------------------|
Eb|-5-5-5-5-5-5-----5--------------3--3---3--------3---5--------5---5----3---3----3---2----------0---0--3-3-3|

Gb|-----------------------------------------------------|
Db|-----------------------------------------------------|
Ab|-----------------------------------------------------|
Eb|-3-3-3-3-3-5-5-5-5-5-5-5-5-7----------------7---5--4-|

Main Part B:
Gb|----------------------------------------------------------------------------------------------------------|
Db|----------------------------------------------------------------------------------------------------------|
Ab|----------------------------------------------------------------------------------------------------------|
Eb|-3-3-3-3-3-3-3-3-3-3-3-3-3-3-3-3-2-2-2-2-2-2-2-2-2-2-2-2-2-2-2-2-3-3-3-3-3-3-3-3-3-3-3-3-3-3-3-3-2-2-2-2-2|

Gb|-------------------------|
Db|-------------------------|
Ab|----------------5-4-2----|  x2
Eb|-2-2-2----2-5-2-------5--|

Main Part C (Outro):
Gb|----------------------------------------------------------------------------------------------------------|
Db|----------------------------------------------------------------------------------------------------------|
Ab|----------------------------------------------------------------------------------------------------------|
Eb|-3-3-3-3-3-3-3-3-3-3-3-3-3-3-3-3-2-2-2-2-2-2-2-2-2-2-2-2-2-2-2-2-3-3-3-3-3-3-3-3-3-3-3-3-3-3-3-3-2-2-2-2--|

Gb|----------------------|
Db|----------------------|
Ab|----------------------|
Eb|-2--2--2-----2-5-2-5--|

            
            
Suggest correction
Creating personal tab
Creating personal tab
You can edit any tab online and save it as your Personal.

You can edit, replace or remove any tab part or add personal notes – all changes will be seen only by you.

Personal tabs can be accessed anytime from any device, even offline.
Learn more »
Give kudos to tab author, rate the tab!
1 2 3 4 5
comments
print report bad tab
guest
You may want to rate the tab now too:
select rating
Wanna post a correction for this tab? Suggest correction