Oops, an error
Loading. Please wait.

F-Zero - Mute City bass

version 2
version 2

Whole song

Interactive

241 views 1 this week
no commentswrite comment
1 2 3 4 5
3 more votes to show rating
add to favorites
×
Save as Personal and add changes to this tab that will be seen only by you. Learn more ›
×
You can save this tab as Personal to edit and correct it or add notes. All changes will be seen only by you. Learn more »
launch autoscroll
font size
0
reset
guitar tuner
edit
Autoscroll
slow
fast
+/-
esc
set tempo
stop
Author
Difficulty
--------------------------------------------------------------------------------------------------------------
                                             F-ZERO - MUTE CITY
--------------------------------------------------------------------------------------------------------------

This song is fairly simple and can be played one of 2 ways in order to hit the low E flat towards the end:
1. On a 5-string bass in standard tuning
2) On a regular 4-string tuned down a half step

For everyone's convenience, i tabbed both out.

-------------------------------
 5-STRING VERSION:
-------------------------------


[INTRO]

G|---------------------------------------------------------------------------------------|
D|-----------3--------1--------3-----------------------3---------------------------------|
A|--3-----------------------------------5-5-4-3-----------------1--------3--------3-3-1--|  x2
E|---------------------------------------------------------------------------------------|
B|---------------------------------------------------------------------------------------|


[MAIN PART]

Part A (First Half):
G|-----------------------------------------------------------------------------------------------------------
D|-----------------------------------------------------------------------------------------------------------
A|-3-3-3-3-3-5---------------------3-3-3-3-3-5---------------------4-4-4-4-4-6---------------------4-4-4-4-4-
E|-------------6-3-3-3-3-3-3-3-3-3-------------6-3-3-3-3-3-3-3-3-3-------------7-4-4-4-4-4-4-4-4-4-----------
B|-----------------------------------------------------------------------------------------------------------

G|------------------------|
D|------------------------|
A|-6----------------------|  x2
E|---7-4-4-4-4-4-4-4-4-4--|
B|------------------------|

Part B (Second Half):
G|-----------------------------------------------------------------------------------------------------------
D|-----------------------------------------------------------------------------------------------------------
A|-3-3-3-3-3-5---------------------3-3-3-3-3-5---------------------2-2-2-2-2-4-2-----2-2-2-2-4-2-----2-2-2-2-
E|-------------6-3-3-3-3-3-3-3-3-3-------------6-3-3-3-3-3-3-3-3-3---------------2-2-------------2-2---------
B|-----------------------------------------------------------------------------------------------------------

G|-----------------------|
D|-----------------------|
A|4-2-----2-2-2-2-4-2----|
E|----2-2-------------2--|
B|-----------------------|


[ENDING PHRASE]

G|-----------------------------------------------------------------------------------|
D|----------------------------------4-4-4-4------------------------------------------|
A|------------------2-2-2-2-2-2-2-2---------4-4-4-4-2-2-2-2-2-2-2-2-2-2-2-2-3-3-4-4--|
E|----------0-0-0-0------------------------------------------------------------------|
B|--4-4-4-4--------------------------------------------------------------------------|

(RINSE AND REPEAT)



------------------------------------
 HALF-STEP DOWN VERSION:
------------------------------------


[INTRO]

Gb|---------------------------------------------------------------------------------------|
Db|-----------4--------2--------4-----------------------4---------------------------------|
Ab|--4-----------------------------------6-6-5-4-----------------2--------4--------4-4-2--|  x2
Eb|---------------------------------------------------------------------------------------|


[MAIN PART]

Part A (First Half):
Gb|----------------------------------------------------------------------------------------------------------
Db|----------------------------------------------------------------------------------------------------------
Ab|-4-4-4-4-4-6---------------------4-4-4-4-4-6---------------------5-5-5-5-5-7---------------------5-5-5-5-5
Eb|-------------7-4-4-4-4-4-4-4-4-4-------------7-4-4-4-4-4-4-4-4-4-------------8-5-5-5-5-5-5-5-5-5----------

Gb|------------------------|
Db|------------------------|
Ab|-7----------------------|  x2
Eb|---8-5-5-5-5-5-5-5-5-5--|

Part B (Second Half):
Gb|----------------------------------------------------------------------------------------------------------
Db|----------------------------------------------------------------------------------------------------------
Ab|-4-4-4-4-4-6---------------------4-4-4-4-4-6---------------------3-3-3-3-3-5-3-----3-3-3-3-5-3-----3-3-3-3
Eb|-------------7-4-4-4-4-4-4-4-4-4-------------7-4-4-4-4-4-4-4-4-4---------------3-3-------------3-3--------

Gb|-----------------------|
Db|-----------------------|
Ab|5-3-----3-3-3-3-5-3----|
Eb|----3-3-------------3--|


[ENDING PHRASE]

Gb|-----------------------------------------------------------------------------------|
Db|----------------------------------5-5-5-5------------------------------------------|
Ab|------------------3-3-3-3-3-3-3-3---------5-5-5-5-3-3-3-3-3-3-3-3-3-3-3-3-4-4-5-5--|
Eb|--0-0-0-0-1-1-1-1------------------------------------------------------------------|

(RINSE AND REPEAT)

Suggest correction
Creating personal tab
Creating personal tab
You can edit any tab online and save it as your Personal.

You can edit, replace or remove any tab part or add personal notes – all changes will be seen only by you.

Personal tabs can be accessed anytime from any device, even offline.
Learn more »
Give kudos to tab author, rate the tab!
1 2 3 4 5
comments
print report bad tab
guest
You may want to rate the tab now too:
select rating
Wanna post a correction for this tab? Suggest correction