Oops, an error
Loading. Please wait.

Final Fantasy 4 - Battle Theme Bass Tab

version 1
version 1

Whole song

Interactive

30,422 views 96 this week
2 commentsread comments
1 2 3 4 5
x 11
add to favorites
launch autoscroll
font size
0
reset
guitar tuner
Autoscroll
slow
fast
+/-
esc
set tempo
stop
Help us to improve Ultimate-Guitar.com Take our survey!
×
Author
Difficulty
novice
Artist: Misc Computer Games
Song: Final fantasy 4 - battle theme
Tabbed By : Dawson_2010
Tuning: Standard

G|-----------------------------------|
D|-----------------------------------|
A|2-2-2-2-2-2--0-0--2-2-2-2-2-2--0-0-|
E|-----------------------------------|

G|-----------------------------------------------|
D|---5-----5------4-----4-----2----4-----5-----6-|
A|-----------------------------------------------|
E|3-----3------2-----2-----0-----2----3-----4----|

G|--------------------------------------------------------|
D|---7-----7-----7-----7----------------------------------|
A|------------------------2-2-2-2-2-2-0-0 2-2-2-2-2-2-0-0-|
E|5----5------5----5--------------------------------------|
Suggest correction
comments
print report bad tab
2 comments total.
0 reply
xXG4RRUSXx 10 Aug 12, 2014 06:56 AM

Thank you, i've been looking for these for quite some time

0 reply
thedarkanimagus 10 Nov 21, 2016 11:07 PM

Does anyone know of a tab of this for a guitar? I don't have a bass.

guest
You may want to rate the tab now too:
select rating
Wanna post a correction for this tab? Suggest correction