Oops, an error
Loading. Please wait.

Final Fantasy 4 - Fight 1 Battle Theme bass

29,205 views 18 this week
3 commentsread comments
1 2 3 4 5
x 5
add to favorites
×
Save as Personal and add changes to this tab that will be seen only by you. Learn more ›
×
You can save this tab as Personal to edit and correct it or add notes. All changes will be seen only by you. Learn more »
launch autoscroll
font size
0
reset
guitar tuner
edit
Autoscroll
slow
fast
+/-
esc
set tempo
stop
Author
Difficulty
========================================
Final Fantasy 4 - Fight 1 (Battle Theme)
as composed by Nobuo Uematsu
========================================
Tabbed by Mikhajlovich
========================================

Tuning: E A D G

LEGEND:

(time values)
W = whole note
Q = quarter note
E = eighth note
. = dotted note (note value increased x 1.5)
_ = note carries over into next bar (i.e., don't play twice)
dal segno (looks like %) = repeat previous bar


4/4, ♪=165

  E E E E E E E E E
G|-----------------|------|
D|7-7-7-7-7-7------|-O-/--|
A|------------10-10|--/-O-|
E|-----------------|------|

 E E  E E  E E E E E E E E E E  E E  E  E  E  E  E  E  E  E
|--10---10---9---9|--7---9---10---11|---12----12----12----12|------|
|-----------------|-----------------|-----------------------|-O-/--|
|8----8----7---7--|5---7---8----9---|10----10----10----10---|--/-O-|
|-----------------|-----------------|-----------------------|------|

 E E E E E E E E E
|-----------------|------|
|7-7-7-7-7-7------|-O-/--|
|------------10-10|--/-O-|
|-----------------|------|

 E E  E E  E E E E E E E E E E  E E  E  E  E  E  E  E  E  E  E E E E E E E E
|--10---10---9---9|--7---9---10---11|---13----13----13----12|--9---9---9---9|
|-----------------|-----------------|-----------------------|---------------|
|8----8----7---7--|5---7---8----9---|11----11----11----10---|7---7---7---7--|
|-----------------|-----------------|-----------------------|---------------|

 Q.E Q.E Q E Q E E E Q.E Q.E E E E Q E E E Q.E Q.E Q.Q E Q Q.E Q.E E E E Q  E E E
|-------|--5-----4--|-------|----------5-4|-------|-------|-------|-----------9-7|
|----5-5|----5-5---5|----5-5|----5--------|7-7----|7-7-7--|7-7----|7-7---10-9----|
|3-3----|3----------|3-3----|3-3---3-3----|----7-7|------7|----7-7|----7---------|
|-------|-----------|-------|-------------|-------|-------|-------|--------------|

 Q.E Q.E Q E Q E E E Q.E Q.E E E E Q E E E Q.E Q.E Q.Q E Q Q.E Q.E E E E Q  E E E
|-------|--5-----4--|-------|----------5-4|-------|-------|-------|---------------|
|----5-5|----5-5---5|----5-5|----5--------|7-7----|7-7-7--|7-7----|7-7---10-9-7---|
|3-3----|3----------|3-3----|3-3---3-3----|----7-7|------7|----7-7|----7--------10|
|-------|-----------|-------|-------------|-------|-------|-------|---------------|

 E E E E E E E E
|---------------|------|------|------|
|---------------|-O-/--|-O-/--|-O-/--|
|8-8-8-8-8-8-8-8|--/-O-|--/-O-|--/-O-|
|---------------|------|------|------|

 W W
|-|-|
|9_9|
|-|-|
|-|-|

As always, repeat from beginning. Enjoy the octave madness.

            
            
Suggest correction
Creating personal tab
Creating personal tab
You can edit any tab online and save it as your Personal.

You can edit, replace or remove any tab part or add personal notes – all changes will be seen only by you.

Personal tabs can be accessed anytime from any device, even offline.
Learn more »
comments
print report bad tab
3 comments total.
0 reply
sonicx2218 70 Dec 09, 2010 01:52 PM

I wouldn't exactly call this advanced... but good tabs nonetheless.

+3 reply
ryoran109 51 Jan 09, 2011 07:32 AM

Hey check it out, I learned the bass line from Final Fantasy II.

+1 reply
DudeIsOnFire 30 Jan 22, 2011 11:52 AM

Hey! Check it out! I learned the Bass from Final Fantasy two! (Scott Pilgrim)

guest
You may want to rate the tab now too:
select rating
Wanna post a correction for this tab? Suggest correction