Oops, an error
Loading. Please wait.

Final Fantasy 6 - Cyans Tab

1,402 views 1 this week
3 commentsread comments
1 2 3 4 5
x 4
add to favorites
launch autoscroll
font size
0
reset
how to read this tab
guitar tuner
Autoscroll
slow
fast
+/-
esc
set tempo
stop
E|--3-8-7---6-1-3---3-8-10-7---6-3-1-3-|
B|-------------------------------------|
G|-------------------------------------|
D|-------------------------------------|
A|-------------------------------------|
e|-------------------------------------|

E|-3-8-7---6-3-1-4-3---------1-----------|
B|---------------------1-3-5-----5-3---1-|
G|-----------------------------------2---|
D|---------------------------------------|
A|---------------------------------------|
e|---------------------------------------|

E|-7-6-1-4-3---7-6-8-5-3-|
B|-----------------------|
G|-----------------------|
D|-----------------------|
A|-----------------------|
e|-----------------------|


Repear as many times as needed
Suggest correction
comments
print report bad tab
3 comments total.
+1 reply
billytheflorb 10 May 10, 2006 10:42 AM

can someone say Tone Deaf?

0 reply
drakoni.metal 63 Jan 18, 2008 06:02 AM

H Q Q H E E E E H E E E E

E||----------------8----|--6--------------5-----|--3--------------3--8--|
B||-----------8---------|------------------
--6--|-----------------------|
G||---------------------|-----------------------|-----------------------|
D||----------
-----------|-----------------------|-----------------------|
A||---------------------|-----------------------|---------
--------------|
E||---------------------|-----------------------|-----------------------|


E H E S S
E H E E E E H E E S S S S

--10------------------------|--------------------8--|--6--------------5-3-1-5-|
------11-----------10-8-----|--8-----
---------8-----|-------------------------|
------------------------10--|-----------------------|-----------------------
--|
----------------------------|-----------------------|-------------------------|
----------------------------|-----
------------------|-------------------------|
----------------------------|-----------------------|--------------------
-----|


H E E E E H E E E E H E Q.

--3--------------------|--1--------------------|---------------------|
-----------------3--4--|--------------4--3----
-|--1------------------|
--------------5--------|--------------------3--|---------------------|
----------------------
-|-----------------------|---------------------|
-----------------------|-----------------------|---------------------|

-----------------------|-----------------------|---------------------|


W E E E E H
W

-------------------|-----------------------|-------------------|
-------------------|--4--3-----3--1--------|--------
-----------|
-------------------|--------3--------------|-------------------|
-------------------|--------------------
---|-------------------|
-------------------|-----------------------|-------------------|
-------------------|--------
---------------|-------------------|


E E E E H

--------1--------------||
--4--3-----3--1--------||
-----------------------||
-----------------------||
----------
-------------||
-----------------------||

0 reply
drakoni.metal 63 Jan 18, 2008 06:03 AM

H        Q    Q       H        E  E  E  E     H        E  E  E  E   
E||----------------8----|--6--------------5-----|--3--------------3--8--|
B||-----------8---------|--------------------6--|-----------------------|
G||---------------------|-----------------------|-----------------------|
D||---------------------|-----------------------|-----------------------|
A||---------------------|-----------------------|-----------------------|
E||---------------------|-----------------------|-----------------------|


E H E S S E H E E E E H E E S S S S
--10------------------------|--------------------8--|--6--------------5-3-1-5-|
------11-----------10-8-----|--8--------------8-----|-------------------------|
------------------------10--|-----------------------|-------------------------|
----------------------------|-----------------------|-------------------------|
----------------------------|-----------------------|-------------------------|
----------------------------|-----------------------|-------------------------|


H E E E E H E E E E H E Q.
--3--------------------|--1--------------------|---------------------|
-----------------3--4--|--------------4--3-----|--1------------------|
--------------5--------|--------------------3--|---------------------|
-----------------------|-----------------------|---------------------|
-----------------------|-----------------------|---------------------|
-----------------------|-----------------------|---------------------|


W E E E E H W
-------------------|-----------------------|-------------------|
-------------------|--4--3-----3--1--------|-------------------|
-------------------|--------3--------------|-------------------|
-------------------|-----------------------|-------------------|
-------------------|-----------------------|-------------------|
-------------------|-----------------------|-------------------|


E E E E H
--------1--------------||
--4--3-----3--1--------||
-----------------------||
-----------------------||
-----------------------||
-----------------------||

guest
Wanna post a correction for this tab? Suggest correction