Oops, an error
Loading. Please wait.

Final Fantasy 6 - Dancing Mad bass

2,479 views 1 this week
no commentswrite comment
1 2 3 4 5
3 more votes to show rating
add to favorites
×
Save as Personal and add changes to this tab that will be seen only by you. Learn more ›
×
You can save this tab as Personal to edit and correct it or add notes. All changes will be seen only by you. Learn more »
launch autoscroll
font size
0
reset
guitar tuner
edit
Autoscroll
slow
fast
+/-
esc
set tempo
stop
Author
Difficulty
============================================
Final Fantasy 6 - Dancing Mad (Final Battle)
as composed by Nobuo Uematsu
============================================
Tabbed by Mikhajlovich
============================================

Tuning: E A D G

LEGEND:

(time values)

W = whole note
Q = quarter note
E = eighth note
S = sixteenth note
_ = note continues into the next bar
R = rest (written within the tab)
dal segno (looks like %) = repeat previous bar (number above indicates specific number
repeats)
o||o = repeat indicated section once

Key: G#m

    #
#
      #
  #
        #

4/4, ♪=129

Intro

  E S  E  S  E S  E  S  E E    x3
G|--------------------------|------|
D|--------------------------|-O-/--|
A|--------------------------|--/-O-|
E|9-11-12-11-9-11-12-11-9-11|------|

Main Riff

  E S  E  S  E S  E  S E E S  E  S  E S  E  S E E E
 |------------------------|------------------------|
o|----------------11---9--|--------------11---9-8--|
o|-------------11----9----|-----------11----9-----9|
 |9-11-12-11-9-----------9|11-12-11-9--------------|

 S  E  S  E S  E  S E E S  S  S  S  E S  E  S E E
|--------------11---9--------|-----------11---9-8-|
|-----------11----9----------|--------11----9-----| o
|11-12-11-9-----------9-11-12_12-11-9-------------| o
|----------------------------|--------------------|

Bridge

 Q Q Q Q E S  E  S E  S E  S  E S  E  S E  E E  E
 ---|----------------|-------------------------|---|
 ---|----------------|-------------------------|---|
 ---|------------9-10|9---------------9-10-9---|---|
 4-5|7-8-9-11-12-----|--12-11-9-11-12--------12|11-|

 Q Q Q E E
|-------|--|
|-------|--|
|-------|--|
|4-5-7-8_8-|

  E S  E  S  E S  E  S  E  E
  ------------------------|---|
o ------------------------|---| o
o ------------------------|---| o
  9-11-12-11-9-11-12-11-12|11-|

Main Riff

  E S  E  S  E S  E  S E E S  E  S  E S  E  S E E E
 |------------------------|------------------------|
O|----------------11---9--|--------------11---9-8--|
O|-------------11----9----|-----------11----9-----9|
 |9-11-12-11-9-----------9|11-12-11-9--------------|

 S  E  S  E S  E  S E E S  S  S  S  E S  E  S E E
|--------------11---9--------|-----------11---9-8-|
|-----------11----9----------|--------11----9-----| O
|11-12-11-9-----------9-11-12_12-11-9-------------| O
|----------------------------|--------------------|

Bridge

 Q Q Q Q E S  E  S E  S E  S  E S  E  S E  E E  E
 ---|----------------|-------------------------|---|
 ---|----------------|-------------------------|---|
 ---|------------9-10|9---------------9-10-9---|---|
 4-5|7-8-9-11-12-----|--12-11-9-11-12--------12|11-|

 Q Q Q E E
|-------|--|
|-------|--|
|-------|--|
|4-5-7-8_8-|

  E S  E  S  E S  E  S  E  E
  ------------------------|---|
O ------------------------|---| O
O ------------------------|---| O
  9-11-12-11-9-11-12-11-12|11-|

Keyboard Solo

  E S  E  S  E  E  E E E S  E  S  E  E  E E E
  ------------------|----------------------|8-|
o -----10-11-10-----|8------10-11-10------8|--| o
o --10----------10-9|----10----------10-9--|--| o
  8-----------------|--8-------------------|--|

  W
|---|
|---|
|-R-|
|---|

  E S  E  S  E  E  E E E S  E  S  E  E  E E E
  ------------------|----------------------|8-|
o -----10-11-10-----|8------10-11-10------8|--| o
o --10----------10-9|----10----------10-9--|--| o
  8-----------------|--8-------------------|--|

Bridge

 Q Q Q Q E S  E  S E  S E  S  E S  E  S E  E E  E
 ---|----------------|-------------------------|---|
 ---|----------------|-------------------------|---|
 ---|------------9-10|9---------------9-10-9---|---|
 4-5|7-8-9-11-12-----|--12-11-9-11-12--------12|11-|

 Q Q Q E E
|-------|--|
|-------|--|
|-------|--|
|4-5-7-8_8-|

Cut to Organ Solo

E S  E  S E  E E Q E  S  E S E  E
--------------|------------------|
--------------|----------8-9-11--|
--------9-10-R|R-R-10-11--------R|
9-11-12-------|------------------|

Some versions have bass playing during the organ solo, but it's not really anything you
figure out by ear...it should be really easy (however, the version I have tabbed does
have any bass during the solo, thank you very much).

After the solo (which is roughly 26 and a half bars, by the way) you just kinda start
the beginning again...end it any way your creativity compels you to.

Also, I must thoroughly apologize about the general crappiness of the way the tab's
are crudely broken off; I wrote it out on my music program in 4/4 time, and I couldn't find
time signature that made it easier to group the notes into coherent sections. But it 
be fine if you just play what you see. And as always, it really helps to have the song
listen to.

If you don't have the original track, you can download a MIDI version here:
http://www.vgmusic.com/music/console/nintendo/snes/index-af.html

            
            
Suggest correction
Creating personal tab
Creating personal tab
You can edit any tab online and save it as your Personal.

You can edit, replace or remove any tab part or add personal notes – all changes will be seen only by you.

Personal tabs can be accessed anytime from any device, even offline.
Learn more »
Give kudos to tab author, rate the tab!
1 2 3 4 5
comments
print report bad tab
guest
You may want to rate the tab now too:
select rating
Wanna post a correction for this tab? Suggest correction