Oops, an error
Loading. Please wait.

Final Fantasy 6 - The Decisive Battle bass

7,594 views 3 this week
no commentswrite comment
1 2 3 4 5
1 last vote to show rating
add to favorites
×
Save as Personal and add changes to this tab that will be seen only by you. Learn more ›
×
You can save this tab as Personal to edit and correct it or add notes. All changes will be seen only by you. Learn more »
launch autoscroll
font size
0
reset
guitar tuner
edit
Autoscroll
slow
fast
+/-
esc
set tempo
stop
Author
Difficulty
=====================================
Final Fantasy 6 - The Decisive Battle
as composed by Nobuo Uematsu
=====================================
Tabbed by Mikhajlovich
=====================================

Tuning: E A D G

LEGEND

(time values)

W = whole note
H = half note
Q = quarter note
E = eighth note
. = dotted note (increases note value x 1.5)
_ = note carries over into next bar (i.e., don't repeat the note)
R = rest (above time values apply to these)
o||o = repeat indicated section once


4/4, ♪=205

Intro

  W W E Q H.H E E E  E  E Q E Q E E E E Q Q Q  E Q E Q E E E E Q Q Q
G|-|-|-----|--9--------|-----------|----------|-----------|----------|
D|7_7|7-R-7_7---9-10---|7-R-7-R-7-R|R-7-R-7---|7-R-7-R-7-R|R-7-R-7---|
A|-|-|-----|---------10|-----------|--------10|-----------|--------10|
E|-|-|-----|-----------|-----------|----------|-----------|----------|

 H Q. E E E Q Q Q  H H H  H H Q. E E E Q Q Q
|------|--9-------|---|---9|------|--9-------|
|------|----9-----|7-9|10--|------|----9-----|
|8-10-7_7-----8-10|---|----|8-10-7_7-----8-10|
|------|----------|---|----|------|----------|

Riff 1

  E Q E Q E E E E Q Q Q
 |-----------|----------|
o|7-R-7-R-7-R|R-7-R-7---|o
o|-----------|--------10|o
 |-----------|----------|

  E Q E Q E E E E Q Q Q  E Q E Q E E E E  Q Q Q
 |-----------|----------|-----------|----------|
o|7-R-7-R-7-R|R-7-R-7---|-----------|----------|o
o|-----------|--------10|8-R-8-R-7-R|R------7-7|o
 |-----------|----------|-----------|--10-R----|

Riff 2

 H.Q Q. Q. Q  Q.H. Q. H E H.Q Q. Q. Q Q. Q.Q Q Q  Q Q
|---|--------|----|------|---|-------|-----7_7-------|
|---|--------|7---|------|---|---9---|---7--|--10-9-7|
|8-9|10----10|--10|8-10-8_8-9|10---10|------|--------|
|---|---10---|----|------|---|-------|10----|--------|

 H.Q Q.Q.Q Q. Q. Q Q.Q.Q H.Q  Q  E Q  E E E  H. Q H H
|---|--9-7|------9|7----|----|10-9-10-9-7---|----|8-11|
|--7|-----|10-----|--7--|--10|------------10|--10|----|
|8--|7----|---10--|----9|8---|--------------|9---|----|
|---|-----|-------|-----|----|--------------|---------|

Outro

 Q. Q. Q  Q. H. Q.Q.Q Q.H.
|---12-11|10---|--9-8|7---||
|--------|-----|-----|----||
|10------|---8-|7----|--5-||
|--------|-----|-----|----||

From there, the song just repeats. Enjoy.

And just so you know, there really is no easy fingering for this song. It's difficult 
you play it on the fretboard.
Suggest correction
Creating personal tab
Creating personal tab
You can edit any tab online and save it as your Personal.

You can edit, replace or remove any tab part or add personal notes – all changes will be seen only by you.

Personal tabs can be accessed anytime from any device, even offline.
Learn more »
Give kudos to tab author, rate the tab!
1 2 3 4 5
comments
print report bad tab
guest
You may want to rate the tab now too:
select rating
Wanna post a correction for this tab? Suggest correction