Oops, an error
Loading. Please wait.

Final Fantasy 7 - One Winged Angel Tab

version 1
version 1

Whole song

Interactive

84,951 views 84 this week
5 commentsread comments
1 2 3 4 5
x 11
add to favorites
launch autoscroll
font size
0
reset
how to read this tab
guitar tuner
×
Best way to learn
"Final Fantasy 7 - One Winged Angel"
Autoscroll
slow
fast
+/-
esc
set tempo
stop
Author
Difficulty
  follow
advanced
(Gtr 1) (E A D G B E)

(4/4)
(Gtr 1)
    ~          ~~            ~~            ~~
e|--------------------------------------------|
B|-7---8-8-8-10---12-12-12-13---12-12-12-11---|
G|--------------------------------------------|
D|--------------------------------------------|
A|--------------------------------------------|
E|--------------------------------------------|

             ~~            ~~            ~~
e|------------------------10------------12---|
B|-12-12-12-14---12-12-12------12-12-12------|
G|-------------------------------------------|
D|-------------------------------------------|
A|-------------------------------------------|
E|-------------------------------------------|

             ~~         ~~               ~
e|--------------------------|---------------|
B|-12-12-12-11---12-12-12---|---------------|
G|--------------------------|-----3-/11-9---|
D|--------------------------|-4h5-----------|
A|--------------------------|---------------|
E|--------------------------|---------------|

e|--------------------------|-------5-4---|
B|--------------------------|-3---------4-|
G|----8-9h11-9-8------------|---2-3-------|
D|-11------------11-10-8-6--|-------------|
A|--------------------------|-------------|
E|--------------------------|-------------|
                                                ~~
e|-9-8-----11-10-----|-15-14-------18-17-------21------|
B|-----8-9-------10--|-------14-15-------17-18---------|
G|-------------------|---------------------------------|
D|-------------------|---------------------------------|
A|-------------------|---------------------------------|
E|-------------------|---------------------------------|

        PM--|    ~~    PM| ~   PM| ~
e|-------------------|-----------------|
B|-------------------|-----------------|
G|--7----------------|-----------------|
D|--7----------------|-----------------|
A|--5---5-5-5-4-/5---|-5-5-4---5-5-4---|
E|-------------------|-----------------|

       PM--|          PM| ~   PM| ~
e|------------------|-----------------|
B|------------------|-----------------|
G|-7-----------/7---|-----------------|
D|-----7------------|-7---------------|
A|-5---5-5-5-4-/5---|-5-5-4---5-5-4---|
E|------------------|-----------------|

         ~~     PM------------|   ~     ~
e|-13-13-------|------------------------------|
B|-------15----|------------------------------|
G|-------------|------------------------------|
D|--3--3-------|---------------------3-3------|
A|--------5----|-5-5-5-5-5-5-5-5-5-4-----5----|
E|-------------|------------------------------|

   PM----------| ~     ~         ~       ~          ~    PM--------------|
e|-------------------------|----------------|--------------------------------|
B|-------------------------|----------------|--------------------------------|
G|-------------------------|----------------|--------------------------------|
D|-7-7-7-5-5-8-8-7---5-8---|----------------|-3-3----------------------------|
A|-------------------------|-3--2---1-------|-----5----5-5-5-5-5-5-5-5-5-4---|
E|-------------------------|----------3-2---|--------------------------------|

      ~       ~    PM--------|
e|--------------------------------|
B|--------------------------------|
G|--------------------------------|
D|-x-x-3---2-2-4----4-4-4-4-4-4---|
A|--------------------------------|
E|--------------------------------|

      ~       ~    PM--------|        ~          ~
e|--------------------------------|------------------|
B|--------------------------------|--------------6---|
G|--------------------------------|----------6-7-----|
D|-x-x-3---3-3-2----2-2-2-2-2-2---|------------------|
A|--------------------------------|-4-5--------------|
E|--------------------------------|------------------|

       ~~           ~    PM--------|   ~        ~~
e|------------|----------------------------|-----------------|
B|------------|----------------------------|-----------------|
G|-7-6-/7-----|----------------------------|-----------------|
D|------------|-3-3------------------------|-----------------|
A|------------|-----5----5-5-5-5-5-5-5-4---|--/7-------------|
E|------------|----------------------------|-----------------|

(Moderate Rock Q=120)
(4/4)
(Gtr 1)
      ~~                    ~~~~~~~            ~~~~~~~           ~~   ~~~~~~~~~~~~~~~~~
e|--------------------------------|--------------------------------------------------------|
B|o----------------8---11---------|-12-12-11-12-(12)-----12----15---14--13--12---(12)-----o|
G|-------------9-----9----12-(12)-|-------------------12----12-----------------------------|
D|--------9------9----------------|--------------------------------------------------------|
A|o-/7------10--------------------|-------------------------------------------------------o|
E|--------------------------------|--------------------------------------------------------|
                                                                  Q

e|-|-----------------------------|-------------------|
B|-|o-11----11----11p10----------|-11p10-------------|
G|-|-----12----12-------12-11-12-|-------12-11-12----|
D|-|-----------------------------|-------------------|
A|-|o----------------------------|-------------------|
E|-|-----------------------------|-------------------|

e|-------------|----------------------------|-----------------------------|
B|-10----11-10-|-12----12----12p10----------|-12p10----------10----12----o|
G|----12-------|----12----12-------12-11-12-|-------12-11-12----12----12--|
D|-------------|----------------------------|-----------------------------|
A|-------------|----------------------------|----------------------------o|
E|-------------|----------------------------|-----------------------------|

             ~~~~           ~~             ~
e|-11-12\--(12)----|-11-12-----------10----9-----|
B|-----------------|-------12-------------------o|
G|-----------------|------------12-9-------------|
D|-----------------|-----------------------------|
A|-----------------|----------------------------o|
E|-----------------|-----------------------------|

                        ~~
e|-10p8-------8--------------|---------------------------|----|
B|------11-10---11-8-8h10----|-8-10-11p10p8----8---------|----|
G|---------------------------|--------------11---11-7----|----|
D|---------------------------|---------------------------|----|
A|---------------------------|---------------------------|----|
E|---------------------------|---------------------------|----|


************************************

| ~    Vibrato
| /    Slide up
| h    Hammer-on
| x    Dead note
| (n)  Ghost note
| p    Pull-off
| \    Slide down

************************************
Suggest correction
comments
print report bad tab
5 comments total. Showing first comments.
0 reply
Halfmastmutiny 40 Aug 14, 2007 12:22 PM

is this the version from advent children?

0 reply
Halfmastmutiny 40 Aug 14, 2007 12:22 PM

is this the version from advent children?

0 reply
JukeB0X Hero 10 Sep 01, 2007 06:55 PM

e 13 D 3 must be code for e 13 B 17

guest
You may want to rate the tab now too:
select rating
Wanna post a correction for this tab? Suggest correction