Oops, an error
Loading. Please wait.

Final Fantasy 8 - Eyes On Me Tab

version 1
version 1

Whole song

34,867 views 1 this week
7 commentsread comments
1 2 3 4 5
x 21
add to favorites
launch autoscroll
font size
0
reset
how to read this tab
guitar tuner
Autoscroll
slow
fast
+/-
esc
set tempo
stop
E -------------------------------------
B -------------------------------------
G -------------------------------------
D -----------2--5--2-----2-------------
A -----3--5-----------5-----3-----3--5-
E --3--------------------------5-------

E -------------------------------------
B -------------------------------------
G -----------------4--4--5--2-----2----
D -----------2--5--------------5-----5-
A -----3--5----------------------------
E --3----------------------------------

E -------------------------------------------------
B -------------------------------------------------
G -----5--5--4--2--2-----------2--2----------------
D --5-----------------5--2--5--------5--3--3-----2-
A --------------------------------------------5----
E -------------------------------------------------

E -------------------------------------------------
B -------------------------------------------------
G -------------------------------------------------
D --2-2-----2--3--2-----------------------2--5-----
A -------5-----------5--5--3-----3--3--5--------5--
E -----------------------------5-------------------

E ------------------------------------------------
B ------------------------------------------------
G -----5--5--4--2--2-----------2--2---------------
D --5-----------------5--2--5--------5--3-----2---
A -----------------------------------------3-----5
E ------------------------------------------------

E ------------------------------------
B ------------------------------------
G ------------------------------------
D -----------2--3--5--5--3-----2------
A -----3--5-----------------3-----5--3
E --3---------------------------------

E ------------------------------------
B ------------------------------------
G -----------4--2--2--2--4--5--2------
D -----2--5-----------------------5--5
A --3---------------------------------
E ------------------------------------

E ------------------------------------------------------------
B ------------------------------------------------------------
G -----------------------------2--2--------------------4--2--2
D --2--2--3--5--3--3--3--3--5--------5--5--------2--5---------
A -----------------------------------------3--3---------------
E ------------------------------------------------------------

E ------------------------------------------------------------------
B ------------------------------------------------------------------
G -----2--4--5--4-----4--2-----------5------------------------------
D --3--------------5--------5--5--3-----3--------2--2---------------
A -----------------------------------------3--5--------5--3--2--5--3
E ------------------------------------------------------------------
Suggest correction
comments
print report bad tab
7 comments total. Showing first comments.
+1 reply
Guitarist_24 51 Apr 13, 2007 08:31 PM

good job it sounds awesome.

-1 reply
adrielle 51 Jun 07, 2007 04:33 AM

it doesnt sound good lolz

0 reply
Freiya 10 Oct 05, 2007 08:29 AM

wrong tab

guest
Wanna post a correction for this tab? Suggest correction