Oops, an error
Loading. Please wait.

Final Fantasy 9 - Song Of Memories tab

version 1
version 1

Whole song

  • This tab/chord chart for Song of Memories from the... Show more

Interactive

31 views 1 this week
no commentswrite comment
1 2 3 4 5
3 more votes to show rating
add to favorites
×
Save as Personal and add changes to this tab that will be seen only by you. Learn more ›
×
You can save this tab as Personal to edit and correct it or add notes. All changes will be seen only by you. Learn more »
launch autoscroll
font size
0
reset
how to read this tab
guitar tuner
edit
Autoscroll
slow
fast
+/-
esc
set tempo
stop
About this tab version
This tab/chord chart for Song of Memories from the Final Fantasy IX soundtrack uses a capo on the 5th fret. It's played with a classical guitar style fingering using your right hand thumb on the lower bass notes while splitting the duties of your other fingers between the different strings. This tab follows the cover of Song of Memories in the link below and includes time markers if you would like to follow along: https://www.youtube.com/watch?v=JcSMPUkskDU. Was this info helpful? Yes No
This tab/chord chart for Song of Memories (Garnet's Song) from the Final Fantasy IX soundtrack uses a capo on 
the 5th fret. It's played with a classical guitar style fingering using your right hand thumb on the lower 
bass notes while splitting the duties of your other fingers between the different strings. 

This tab follows the cover of Song of Memories in the link below and includes time markers if you would like 
to follow along!

https://www.youtube.com/watch?v=JcSMPUkskDU&list=PL5UJHs1_AG0g57vccCjwFuzhJEarTb-U3&index=5

(0:00)
   F                                A#
   1 e + a 2 e + a 3 e + a 4 e + a  1 e + a 2 e + a 3 e + a 4 e + a
E|-----------------0--------------|-----------------3---------------|
B|-------------1---3---1---0------|-------------1---1---1---3-------|
G|---------0---------------0------|---------2---------------2-------|
D|-----2-----------------------2--|-----3-----------------------3---|
A|-3------------------------------|-3-------------------------------|
E|--------------------------------|---------------------------------|

   F                                 A#m             C#maj7  Edim/A#
   1 e + a 2 e + a 3 e + a 4 e + a   1 e + a 2 e + a 3 e + a 4 e + a
E|-----------------0---------------|-----------------3-------1-------|
B|-------------1---3---1---0-------|-------------1---4-------3-------|
G|---------0---------------0-------|---------1-------5-------4-------|
D|-----2-----------------------2---|-----3-----------6-------3-------|
A|-3-------------------------------|-3-------------------------------|
E|---------------------------------|---------------------------------|

                                     (0:21)
                                     F               C/F
   1 e + a 2 e + a 3 e + a 4 e + a   1 e + a 2 e + a 3 e + a 4 e + a
E|---------------------------------|-0-------0---3-----------------0-|
B|-----------------3---5---6-------|-1---3-----------3-----------3---|
G|-----------------------------4---|-0---------------4---------------|
D|-----------------6---5---3---5---|-2---------------5---------------|
A|---------------------------------|-3---------------3---------------|
E|---------------------------------|---------------------------------|

   Gm              Dm/F              A#              F#aug   Am7no5
   1 e + a 2 e + a 3 e + a 4 e + a   1 e + a 2 e + a 3 e + a 4 e + a
E|-1---0---1---5---0---------------|-5---3---3---1-------0-------0---|
B|-3---------------1-----------1---|-1---------------6-------3-------|
G|-2---------------2---------------|-2---------------2-------0-------|
D|-0---------------2---------------|-3---------------3-------2-------|
A|-----------------3-------3-------|-----------------4---------------|
E|---------------------------------|---------------------------------|

                                     (0:36)
   Gm7no5          C/E               F               C/F
   1 e + a 2 e + a 3 e + a 4 e + a   1 e + a 2 e + a 3 e + a 4 e + a
E|---------------------------------|-0-------0---3-----------------0-|
B|-6-----------3---0---------------|-----3-----------3-----------3---|
G|-5-------5-------0---------------|---------0---------------4-------|
D|-3---3-----------0---------------|-----2---------------5-----------|
A|-5---------------2---------------|-3---------------3---------------|
E|---------------------------------|---------------------------------|

   Gm         Am/E Dm/F    Am/E      D#/G
   1 e + a 2 e + a 3 e + a 4 e + a   1 e + a 2 e + a 3 e + a 4 e + a
E|-1---0---1---3---5-------3-------|-1---0---0-----------------------|
B|-----------------5-------5-------|-------------3---3-----------3---|
G|---------2---4---5-------4-------|-3-------------------------------|
D|-0---3---------------------------|---------3-------0---------------|
A|---------------------------------|---------------------------------|
E|---------------------------------|---------------------------------|

                                     (0:51)
   C7/A#                             F               Amno5add2
   1 e + a 2 e + a 3 e + a 4 e + a   1 e + a 2 e + a 3 e + a 4 e + a
E|-3-------------------------------|-------------0-------------------|
B|-----6---6---5---5---3-----------|-1-------3-------0-----------0---|
G|-4-------5-------4-------5---4---|---------0---------------0-------|
D|-------------------------3-------|-----2---------------4-----------|
A|---------------------------------|-3---------------7---------------|
E|---------------------------------|---------------------------------|

   C7no5/A#        A#          Am7   G#m             A#/F
   1 e + a 2 e + a 3 e + a 4 e + a   1 e + a 2 e + a 3 e + a 4 e + a
E|---------------------------------|-1---0---0-----------------------|
B|-0---1---0-----------------------|-------------3---3-------1-------|
G|-------------0---2-----------2---|---------2-------------------2---|
D|-3---------------3-------3---2---|-0---3---------------3-----------|
A|---------------------------------|-----------------3---------------|
E|---------------------------------|---------------------------------|

                                     (1:05)
   C               A#      C         F               Amno5add2
   1 e + a 2 e + a 3 e + a 4 e + a   1 e + a 2 e + a 3 e + a 4 e + a
E|---------------------------------|-------------0-----------0-------|
B|-0---1-3-------------------------|-1-------3-------8-----------0---|
G|-0-------------------2-------4---|---------0---------------0-------|
D|-----------------3-------5-------|-----2---------------4-----------|
A|---------------------------------|-3---------------7---------------|
E|---------------------------------|---------------------------------|

   A#                          Am7   Gm                      Gm7
   1 e + a 2 e + a 3 e + a 4 e + a   1 e + a 2 e + a 3 e + a 4 e + a
E|---------------------------------|---------------------------------|
B|---------------------------------|-6---5---5---3---3-----------1---|
G|-----0---------------------------|-------------------------2-------|
D|-7---------------7-----------7---|-0-------------------------------|
A|-8-------8---7---8-------8---7---|---------------------------------|
E|---------------------------------|---------------------------------|

   Cm/D#                             Csus4                   A#
   1 e + a 2 e + a 3 e + a 4 e + a   1 e + a 2 e + a 3 e + a 4 e + a
E|-3---1---1---0---0-------0---1---|-3-------------------------------|
B|---------------------3-----------|---------3---6---3-----------1---|
G|-3-------------------------------|-----5---------------5---2-------|
D|---------------------------------|-5-------------------------------|
A|---------------------------------|---------------------------------|
E|---------------------------------|---------------------------------|

   C                                 A#                      C7no5
   1 e + a 2 e + a 3 e + a 4 e + a   1 e + a 2 e + a 3 e + a 4 e + a
E|-------------0---1---0-----------|-------------------------0---1---|
B|-0-----------------------0---3---|-3---1-------0---1---3-------0---|
G|---------------------------------|---------5---0-----------0-------|
D|-0-------------------------------|-----3---7-------3---0-----------|
A|---------------------------------|-3-------------------------------|
E|---------------------------------|---------------------------------|

   (1:31)
   F                                A#
   1 e + a 2 e + a 3 e + a 4 e + a  1 e + a 2 e + a 3 e + a 4 e + a
E|-----------------0--------------|-----------------3---------------|
B|-1-----------1---3---1---0------|-------------1---1---1---3-------|
G|---------0---------------0------|---------2---------------2-------|
D|-----2-----------------------2--|-----3-----------------------3---|
A|-3------------------------------|-3-------------------------------|
E|--------------------------------|---------------------------------|

   F                                 A#m             C#maj7  Edim/A#
   1 e + a 2 e + a 3 e + a 4 e + a   1 e + a 2 e + a 3 e + a 4 e + a
E|-----------------0---------------|-----------------3-------1-------|
B|-------------1---3---1---0-------|-------------1---4-------3-------|
G|---------0---------------0-------|---------1-------5-------4-------|
D|-----2-----------------------2---|-----3-----------6-------3-------|
A|-3-------------------------------|-3-------------------------------|
E|---------------------------------|---------------------------------|

                                     F
   1 e + a 2 e + a 3 e + a 4 e + a   1 e + a 2 e + a 3 e + a 4 e + a
E|---------------------------------|-0-------------------------------|
B|---------------------------------|-1-------------------------------|
G|---------------------------------|-0-------------------------------|
D|---------------------------------|-2-------------------------------|
A|---------------------------------|-3-------------------------------|
E|---------------------------------|---------------------------------|

            
            
Suggest correction
Creating personal tab
Creating personal tab
You can edit any tab online and save it as your Personal.

You can edit, replace or remove any tab part or add personal notes – all changes will be seen only by you.

Personal tabs can be accessed anytime from any device, even offline.
Learn more »
Give kudos to tab author, rate the tab!
1 2 3 4 5
comments
print report bad tab
guest
You may want to rate the tab now too:
select rating
Wanna post a correction for this tab? Suggest correction