Oops, an error
Loading. Please wait.

Final Fantasy 9 - The Beginning tab

3,236 views 3 this week
2 commentsread comments
1 2 3 4 5
1 last vote to show rating
add to favorites
×
Save as Personal and add changes to this tab that will be seen only by you. Learn more ›
×
You can save this tab as Personal to edit and correct it or add notes. All changes will be seen only by you. Learn more »
launch autoscroll
font size
0
reset
how to read this tab
guitar tuner
edit
Autoscroll
slow
fast
+/-
esc
set tempo
stop
|----------------------------------------------------|
|-------------0-1-0----------------------------------|
|--------0-2--------2-0--2---------------------------|
|-0--2-3-------------------3-2-0---------------------|
|--------------------------------3-------------------|
|----------------------------------------------------|

|----------------------------------------------------|
|-------------0-1-0----------------------------------|
|--------0-2--------2-2-1-2--------------------------|
|-0--2-3---------------------------------------------|
|----------------------------------------------------|
|----------------------------------------------------|

|----------------------------------------------------------------------|
|-------------0-1-0----------------------------------------------------|
|--------0-2--------2-0--2----------------0---------2---0--------------|
|-0--2-3-------------------3-2-0------3-3---3-2-0-----0---3-2-2-2-0----|
|--------------------------------3----------------3--------------------|
|----------------------------------------------------------------------|

|---------------------------------------------------------------|
|--3---3-1-0-------------0-1-1----3---3-1-0---------------------|
|----2-------2-0-2---0-2------------2-------2-0---2-------------|
|------------------3----------------------------3---2-0---0h2h0-|
|-------------------------------------------------------3-------|
|---------------------------------------------------------------|

I know how to play it, but now I'm in a place where I have no guitar! ^_^'
so I'm making this by memory! sorry for any inconvinient! if there are some mistakes,
let me know and I'll check it up again! ^_^
have fun!! \m/
Suggest correction
Creating personal tab
Creating personal tab
You can edit any tab online and save it as your Personal.

You can edit, replace or remove any tab part or add personal notes – all changes will be seen only by you.

Personal tabs can be accessed anytime from any device, even offline.
Learn more »
Give kudos to tab author, rate the tab!
1 2 3 4 5
comments
print report bad tab
2 comments total.
0 reply
Guitarist_24 51 Apr 11, 2007 08:42 PM

that was good i think the only part you messed up on is the very last part. the part that goes 1-4-2-4

0 reply
ShalloW_AnarkI 113 Feb 03, 2014 06:31 AM

|----------------------------------------------------|
|-------------0-1-0----------------------------------|
|--------0-3--------3-0--3---------------------------|
|-0--2-3-------------------3-2-0---------------------|
|--------------------------------3-------------------|
|----------------------------------------------------|

|----------------------------------------------------|
|-------------0-1-0----------------------------------|
|--------0-3--------3-3-2-3--------------------------|
|-0--2-3---------------------------------------------|
|----------------------------------------------------|
|----------------------------------------------------|

|----------------------------------------------------------------------|
|-------------0-1-0----------------------------------------------------|
|--------0-3--------3-0--3----------------0---------2---0--------------|
|-0--2-3-------------------3-2-0------3-3---3-2-0-----2---3-2-2-2-0----|
|--------------------------------3----------------4--------------------|
|----------------------------------------------------------------------|

|---------------------------------------------------------------|
|--3---3-1-0-------------0-1-1----3---3-1-0---------------------|
|----2-------2-0-2---0-2------------2-------2-0---2-------------|
|------------------3----------------------------3---2-0---0-----|
|-------------------------------------------------------3-------|
|---------------------------------------------------------------|

I know how to play it, but now I'm in a place where I have no guitar! ^_^'
so I'm making this by memory! sorry for any inconvinient! if there are some mistakes,
let me know and I'll check it up again! ^_^
have fun!! \m/

I'VE VHANGED THE ENDING!! ^^ I think it's ok now! sorry for before! lack of attention!

guest
You may want to rate the tab now too:
select rating
Wanna post a correction for this tab? Suggest correction