Oops, an error
Loading. Please wait.

Final Fantasy 9 - Vivis Tab

5,036 views 3 this week
1 commentread comment
1 2 3 4 5
excellent!
x 4
add to favorites
launch autoscroll
font size
0
reset
how to read this tab
guitar tuner
Tab Pro tools
  • play this tab
  • loop segment
  • change instrument
  • show fretboard
  • metronome
Autoscroll
slow
fast
+/-
esc
set tempo
stop
Contributor
tabbed by whitechocobo666 (whitechocobo666@yahoo.com)

h = hammer on (the hammer notes might be slides, but oh well.)
! = hold for 2 bars (it wastes too much space not having this.)

TEMPO: 180

SOME INSTRUMENT
   1 + 2 + 3 + 4 + 1 + 2 + 3 + 4 + 1 + 2 + 3 + 4 + 1 + 2 + 3 + 4 + 1 + 2 + 3 + 4 +
e|---------------------------------------------------------------------------------|
b|-------------------------------------------------1-------------------------------|
g|-3---3---3---2-0---0-2-----------3---3---3---2-0-----2-----------3---3---3---2-0-|
D|-----------------4-----4-0---2-4-------------------------3-----------------------|
A|---------------------------------------------------------------------------------|
E|---------------------------------------------------------------------------------|

   1 + 2 + 3 + 4 + 1 + 2 + 3 + 4 + 1 + 2 + 3 + 4 + 1 + 2 + 3 + 4 + 1 + 2 + 3 + 4 +
e|--------------------------------------------------------------------------------|
b|--------------------------------------------------------------------------------|
g|---0-2-----------0-------0------------------------------------------------------|
D|-4-----4-0---2-4-----2-3-----2-----0-1------------------------------------------|
A|---------------------------------3-----3---1-3----------------------------------|
E|-----------------------------------------4--------------------------------------|

CLARINET
   1 + 2 + 3 + 4 + 1 + 2 + 3 + 4 + 1 + 2 + 3 + 4 + 1 + 2 + 3 + 4 + 1 + 2 + 3 + 4 +
e|-----------------------------------------------------0---------0----------------|
b|---------3-1-----------------------------3-1-------------0-2-4------------------|
g|-0---4-------4-2-0---------------0---4-------4-2-0------------------------------|
D|--------------------------------------------------------------------------------|
A|--------------------------------------------------------------------------------|
E|--------------------------------------------------------------------------------|

FLUTE
   1  +  2  +  3  +  4  +  1  +  2  +  3  +  4  +  1  +  2  +  3  +  4  +   1 + 2
e|-12-11-12----------12-11-14----12-11-12----------11----12----14----12-11-!12!---|
b|-------------14----------------------------14-----------------------------------|
g|--------------------------------------------------------------------------------|
D|--------------------------------------------------------------------------------|
A|--------------------------------------------------------------------------------|
E|--------------------------------------------------------------------------------|

CLARINET
   1 + 2 + 3 + 4 + 1 + 2 + 3 + 4 + 1 + 2 + 3 + 4 +  1 + 2 + 3 + 4 + 1 + 2 + 3 + 4
e|--------------------------------------------------------------------------------|
b|--------------------------------------------------------------------------------|
g|-2-1-2---1-------------------2-1-2-1-2---1--------------------------------------|
D|-------4-----4-2-4---0---2-------------4-----4-2-!4!----------------------------|
A|--------------------------------------------------------------------------------|
E|--------------------------------------------------------------------------------|


FLUTE
   1  +  2  +  3  +  4  +  1  +  2  +  3  +  4  +  1  +  2  +  3  +  4  +   1 + 2
e|-12-11-12----------12-11-14----12-11-12----------11----12----14----12-11--!12!--|
b|-------------14----------------------------14-----------------------------------|
g|--------------------------------------------------------------------------------|
D|--------------------------------------------------------------------------------|
A|--------------------------------------------------------------------------------|
E|--------------------------------------------------------------------------------|

   1 + 2 + 3 + 4 + 1 + 2 + 3 + 4 + 1 + 2  + 3 + 4 + 1 + 2 + 3 + 4 + 1 + 2 + 3 + 4
e|---------0----------------------------------------------------------------------|
b|-------1-----3-1-0-1-3---3---1-0-1--0h1-0---------------------------------------|
g|-----2------------------------------------2(hold-for-1.5-bars)------------------|
D|-2-3----------------------------------------------------------------------------|
A|--------------------------------------------------------------------------------|
E|--------------------------------------------------------------------------------|

Bassoon (actually 1 octave lower but then you can't play it on guitar)
   1 + 2 + 3 + 4 + 1 + 2 + 3 + 4 + 1 + 2 + 3 + 4 + 1 + 2 + 3 + 4 + 1 + 2 + 3 + 4 +
e|--------------------------------------------------------------------------------|
b|--------------------------------------------------------------------------------|
g|--------------------------------------------------------------------------------|
D|-----------------------------------------------------1---1-----1-2--------------|
A|---------------------------------1-0-1-3-4---3-1-3-4---------4-----4------------|
E|-1-0-1-3-4---3-1-0-1-3-3---------------------------------------------4----------|

   1 + 2 + 3 + 4 + 1 + 2 + 3 + 4 + 1 + 2 + 3 + 4 + 1 + 2 + 3 + 4 + 1 + 2 + 3 + 4 +
e|--------------------------------------------------------------------------------|
b|--------------------------------------------------------------------------------|
g|--------------------------------------------------------------------------------|
D|-----2-1-2-4-2-1-4-1------------------------------------------------------------|
A|---------------------2----------------------------------------------------------|
E|--------------------------------------------------------------------------------|

Clarinet
   1 + 2 + 3 + 4 + 1 + 2 + 3 + 4 + 1 + 2 + 3 + 4 + 1 + 2 + 3 + 4 + 1 + 2 + 3 + 4 + 1 +
e|-2---0-2-3-2-0-2---------------------------------5---2-3-5-3-2-3-2----------0h2-0-----|
b|-----------------4-----------1--!0!-----------------------------------------------!4!-|
g|--------------------------------------------------------------------------------------|
D|--------------------------------------------------------------------------------------|
A|--------------------------------------------------------------------------------------|
E|--------------------------------------------------------------------------------------|
comments
print report bad tab
1 comment total.
0 reply
Guitarist_24 wrote on June 12 2007, 02:10 pm

good job.

I want to post or [tab]
guest
You may want to rate the tab now too:
select rating
Please do not post tabs as comments. Select "correction" instead!