Oops, an error
Loading. Please wait.

Final Fantasy Ix - The Place Ill Return To Someday Tab

2,602 views 1 this week
no commentswrite comment
1 2 3 4 5
x 3
add to favorites
launch autoscroll
font size
0
reset
how to read this tab
guitar tuner
Autoscroll
slow
fast
+/-
esc
set tempo
stop
Help us to improve Ultimate-Guitar.com Take our survey!
×
Author
Difficulty
novice
e|-----------0------2-3-2-0-----0------------------0-----2-3-2-0-0---0--|
B|-----0-1-3----------------3-----1-0--------0-1-3-----------------4-0--|
G|-2-------------0--------------------2-0-2------------0-----0-------0--|
D|---1---------2--------0-----0-------------1--------2------------------|
A|-0---------3--------------------0-------0--------3--------------------|
E|-------------------------------------------------------------------0--|

e|-----------0------2-3-2-0-----0----------------------0----------------|
B|-----0-1-3----------------3-----1-0-----1--3-1-0-------0-3-1-1-0-0----|
G|-2-------------0--------------------2-0----------2-1---------------2--|
D|---1---------2--------0-----0-------------2--------------------2---2--|
A|-0---------3--------------------0-------3----------2---------------0--|
E|----------------------------------------------------------------------|

e|-5---5-3-2-0---0-----0-2-3-3-----5---5-3-2-0-----0--------------------|
B|-5-5---0-----3-1-1-3-----0-0-----5-5---0-----3-1---0------------------|
G|-5-------------------------------5-------------------2-0-2-2----------|
D|-7-------------------------------7-------------------------2----------|
A|-7-------------3-----------------7-------------3---2-----0-0----------|
E|-5-----3-----------------3-3-----5-----0------------------------------|

Hey guys, this is my first tab. I've been going over it for a while trying to find the 
right chords and this sounds right to me.

Chords are basically:
First part - | Am C D Am | Am C D E | Am C D Am | C E E Am |
Second part - | Am G C G | Am G C G Am |

Please comment with any suggestions!
Suggest correction
Give kudos to tab author, rate the tab!
1 2 3 4 5
comments
print report bad tab
guest
You may want to rate the tab now too:
select rating
Wanna post a correction for this tab? Suggest correction