Oops, an error
Loading. Please wait.

Final Fantasy V - My Home Sweet Home Tab

13 views 1 this week
no commentswrite comment
1 2 3 4 5
3 more votes to show rating
add to favorites
launch autoscroll
font size
0
reset
how to read this tab
guitar tuner
Autoscroll
slow
fast
+/-
esc
set tempo
stop
Help us to improve Ultimate-Guitar.com Take our survey!
×
Author
Difficulty
intermediate
Title:  My Home, Sweet Home 
Artist: Nobuo Uematsu
Game:   Final Fantasy V
Tab by: Matias Lavik 

Note: This is my own guitar arrangement, and is slightly different from the original soundtrack.

Final Fantasy V - My Home, Sweet Home 

(intro - beginning)
E|------0----0----|-3----2---0-------2---|-0--------------|------------|------0----0----|
B|------0----1----|--------------3-------|-1--------------|------------|------3----1----|
G|-2--------------|-0------------4-------|-2----2----0----|-2----------|-2--------------|
D|----------------|----------------------|-3---------2----|-0----------|----------------|
A|----------------|----------------------|----------------|------------|-3--------------|
E|----------------|----------------------|----------------|------------|----------------|


E|-3----2---0-------2---|-0----5----3----|-5--------------|-5----5---7---3---0---|
B|--------------3-------|----------------|----------------|----------------------|
G|----------------------|----------------|----------------|----------------------|
D|-0--------------------|----------------|-----------7----|--------------2-------|
A|----------------------|-3---------2----|------8---------|-0--------------------|
E|----------------------|----------------|-6--------------|----------------------|


E|------3----2----|-0--------------|------------|------0----0----|-3----2---0-------2---|
B|-3--------------|----------------|------------|----------------|--------------3-------|
G|----------------|------2----0----|-2----------|-2--------------|----------------------|
D|-0--------------|----------------|-0----------|----------------|-0--------------------|
A|----------------|-3---------2----|------------|-0---------3----|--------------2-------|
E|----------------|----------------|-1----------|----------------|----------------------|

                  (intro - end)
E|-0----5----3----|-5----------|------0----0----|-3----2---0-------2---|-0--------------|
B|----------------|------------|------0----1----|--------------3-------|-1--------------|
G|-----------0----|-2----------|-2--------------|--------------4-------|-2----2----0----|
D|------0----2----|-3----------|----------------|----------------------|----------------|
A|-3--------------|------------|-0--------------|----------------------|----------------|
E|----------------|------------|----------------|-3--------------------|-1---------3----|


E|------------|------0----0----|-3----2---0-------2---|-0----5----3----|-5----------|
B|------------|------0----1----|--------------3-------|----------------|-3----------|
G|-2----------|-2--------------|--------------4-------|------5----4----|-2----------|
D|------------|----------------|----------------------|-3---------2----|-0----------|
A|-0----------|-0--------------|----------------------|----------------|------------|
E|------------|----------------|-3--------------------|----------------|------------|


E|-5----5---7-----------|------3----2----|-0--------------|------------|------0----0----|
B|------5-------8---5---|-3----3----3----|-1--------------|------------|------1----1----|
G|------5-------5-------|------4----4----|-2----2----0----|-2----------|-2--------------|
D|----------------------|----------------|-3---------2----|-0----------|----------------|
A|----------------------|----------------|----------------|------------|-0--------------|
E|-5--------------------|-3--------------|----------------|------------|----------------|


E|-3----2---0-------2---|-0----5----3----|-5----------|------0-------0-------|---------3-------2----|
B|--------------3-------|----------------|------------|----------------------|-3--------------------|
G|--------------2-------|-5---------4----|-2----------|----------------------|----------------------|
D|-0--------------------|----------------|------------|------------------2---|-0---------------0----|
A|----------------------|-3--------------|-0----------|-0----0---2---3-------|-----3---2---3--------|
E|----------------------|-----------3----|------------|----------------------|----------------------|


E|------0-------0----|----------------------|------0-------0-------|---------3-------2----|
B|------1-------1----|-3----0---------------|----------------------|-3---------------3----|
G|-------------------|----------2---0-------|----------------------|----------------------|
D|-------------------|----------------------|------------------2---|-0---------------0----|
A|-0----2---3---0----|----------------------|-0----0---2---3-------|-----3---2---3--------|
E|-------------------|-3--------------------|----------------------|----------------------|


E|-0----5----3----|-5----------|-5----5---7-----------|----------------|-0--------------|
B|-1----5----5----|-5----------|--------------8-------|------8----7----|-1--------------|
G|-----------4----|-5----------|------------------9---|-7---------7----|------2----0----|
D|-----------2----|-3----------|----------------------|----------------|----------------|
A|-0--------------|------------|--------------7-------|-5--------------|-3---------2----|
E|----------------|------------|-5--------------------|-----------7----|----------------|


E|------------|------0----0----|-3----2---0-------2---|-0----5----3----|-5----------|
B|------------|------1----1----|--------------3-------|----------------|------------|
G|-2----------|-2--------------|--------------2-------|-5---------4----|-2----------|
D|-0----------|----------------|-0--------------------|----------------|------------|
A|------------|-0--------------|----------------------|-3--------------|-0----------|
E|-1----------|----------------|----------------------|-----------3----|------------|



Suggest correction
Give kudos to tab author, rate the tab!
1 2 3 4 5
comments
print report bad tab
guest
You may want to rate the tab now too:
select rating
Wanna post a correction for this tab? Suggest correction