Oops, an error
Loading. Please wait.

Final Fantasy X - Final Bass Tab

952 views 3 this week
no commentswrite comment
1 2 3 4 5
2 more votes to show rating
add to favorites
launch autoscroll
font size
0
reset
guitar tuner
Autoscroll
slow
fast
+/-
esc
set tempo
stop
Help us to improve Ultimate-Guitar.com Take our survey!
×
Author
Difficulty
novice
"To Zanarkand" From the hit game, Final Fantasy X.
Artist - Yoki Mori
Composed by Nobou Uematsu
Bass tuning - E, A, D, G

Okay I know this song is done on Piano, 
you don't gotta freak about it, 
but I'm a bassist so I thought I'd trow this tab out there. 
I havn't been able to find good tabs for this song, so enjoy.


(Riff-1)
[--0--------0-2-3---|-------------0-2--]
[---------0---------|--3--------3------]
[-------2-----------|-------0-3--------]
[-----3-------------|-----1------------]

[--7--7--7--7--5---10------5--5--5--5-----7---]
[--------------------8----------------7----5--]
[---------------------------------------------]
[---------------------------------------------]


(Riff-2)
[--9---7--9--11--12--11--9--7--9-7-----]
[-----------------------------------9--]
[--------------------------------------]
[--------------------------------------]

[--9---7--9--11--12--11--12--14---12--14--16--]
[---------------------------------------------]
[---------------------------------------------]
[---------------------------------------------]

[--9---7--9--11--12--11--9--7--9-7-----]
[-----------------------------------9--]
[--------------------------------------]
[--------------------------------------]

[--4--4--4--4--2---7-------------------]
[----------------------5---5--4--0--2--]
[--------------------------------------]
[--------------------------------------]


(Riff-3)
[--2---9--9---7--5---4---12--12---7---11--11---5---9--9---8--]
[------------------------------------------------------------]
[------------------------------------------------------------]
[------------------------------------------------------------]

[------4--4------------7--7----(2)--------0------------------------]
[--2---------2--5--4--------------(2)----------------0----0--2--3--]
[------------------------------------(2)-----4--0--3---------------]
[------------------------------------------------------------------]

[-----------0--2--]END
[--0--2--3--------]END
[-----------------]END
[-----------------]END

Structure

Riff1

Riff2

Riff3

Riff2

Riff3

End =)

Just listen to the original song and you'll get the timing real quick.
Suggest correction
Give kudos to tab author, rate the tab!
1 2 3 4 5
comments
print report bad tab
guest
You may want to rate the tab now too:
select rating
Wanna post a correction for this tab? Suggest correction