Oops, an error
Loading. Please wait.

Final Fantasy X - Hymn Of The Faith Bass Tab

4,208 views 3 this week
2 commentsread comments
1 2 3 4 5
excellent!
x 6
add to favorites
launch autoscroll
font size
0
reset
guitar tuner
Tab Pro tools
  • play this tab
  • loop segment
  • change instrument
  • show fretboard
  • metronome
Autoscroll
slow
fast
+/-
esc
set tempo
stop
Contributor
Difficulty
novice
OK, Since i had yet to find the bass tab for this, ive made it myself, it sounds
real nice and close to the original, so im 100% sure this is right

Tuning: Standard ( E A D G)

G--------------------------------|
D-----------5----5---3---5-7--0--|
A--5--8-7------------------------|
E--------------------------------|

G------------------------------------------------------------|
A---7--9--5--7---5--3--5-7--0----0-0-2-2-3--3-----3-0---0--0-|
D-----------------------------------------------------3------|
E------------------------------------------------------------|

And there you have it, The Hymn of the Faith.

Stay tuned for more great tabs later on
comments
print report bad tab
2 comments total.
0 reply
jesuspunk777 wrote on March 28 2008, 06:17 pm

i like it, sounds good

0 reply
fumb duck wrote on May 25 2010, 07:11 am

Great tab but i think it sounds a lot if you use hammerons like this
--------------------------------|
-----------5----5---3---5h7--0--|
--5--8-7------------------------|
--------------------------------|

-----------------------------------------------------------|--7--9--5--7---5--3--5h7--0----0-0-2-2-3--3-----3-0---0--0-|
----------------------------------------------------3------|-----------------------------------------------------------|

I want to post or [tab]
guest
You may want to rate the tab now too:
select rating
Please do not post tabs as comments. Select "correction" instead!