Oops, an error
Loading. Please wait.

Final Fantasy X - Thunder Plains Tab

version 1
version 1

Whole song

Interactive

1,576 views 24 this week
no commentswrite comment
1 2 3 4 5
please rate
add to favorites
launch autoscroll
font size
0
reset
how to read this tab
guitar tuner
Tab Pro tools
  • play this tab
  • loop segment
  • change instrument
  • show fretboard
  • metronome
×
Best way to learn
"Final Fantasy X - Thunder Plains"
Autoscroll
slow
fast
+/-
esc
set tempo
stop
Contributor
Capo
5th fret
-------------------------------------------------------------------------------
                             Thunder Plains - Nobuo Uematsu
-------------------------------------------------------------------------------
Tabbed by: XCrusherX@gmail.com

Tuning: Standard - Capo on the 5th fret

NOTE: This is the txt-export of the Guitar Pro file I uploaded some time ago. 
If you already were able to view that tab you won't find anything new here. 


     Q    Q    Q    E  E     Q    E  E  E  E  E  E     Q    Q    Q    E  E   
E||-----------------------|-------------------------|-----------------------|
B||--3----1----0----------|--0----------------0--1--|--3----1----0----------|
G||--------------------2--|----------2--0--2--------|--------------------2--|
D||-------0----2----4-----|--5----4-----2-----0-----|-------0----2----4-----|
A||--3--------------------|-------------------------|--3--------------------|
E||-----------------------|-------------------------|-----------------------|


  E  E  Q    E  E  E  E     Q    Q    Q    E  E     Q    E  E  E  E  E  E   
-------------------------|-----------------------|-------------------------|
--------0----------0--1--|--3----1---------------|----------------------1--|
--0--2--2-------2--------|------------3-------2--|--3-------2--0--2--3-----|
--5----------5-----4-----|-------0----1----3-----|--5----3-----1-----0-----|
-------------------------|--3--------------------|-------------------------|
-------------------------|-----------------------|-------------------------|


  Q    Q    Q    E  E     E  E  Q    E  E  E  E     Q    Q    Q    E  E   
-----------------------|-------------------------|-----------------------|
--3----1---------------|----------------------1--|--3----1----0----------|
------------3-------2--|--0--2--3-------2--3-----|--------------------2--|
-------0----1----3-----|--5-----3----1-----0-----|-------0----2----4-----|
--3--------------------|-------------------------|--3--------------------|
-----------------------|-------------------------|-----------------------|


  Q    E  E  E  E  E  E     Q    Q    Q    E  E     E  E  Q    E  E  E  E   
-------------------------|-----------------------|-------------------------|
--0----------------0--1--|--3----1----0----------|--------0----------0--1--|
----------2--0--2--------|--------------------2--|--0--2--2-------2--------|
--5----4-----2-----0-----|-------0----2----4-----|--5----------5-----4-----|
-------------------------|--3--------------------|-------------------------|
-------------------------|-----------------------|-------------------------|


  Q    Q    Q    E  E     Q    E  E  E  E  E  E     Q    Q    Q    E  E   
-----------------------|-------------------------|-----------------------|
--3----1---------------|----------------------1--|--3----1---------------|
------------3-------2--|--3-------2--0--2--3-----|------------3-------2--|
-------0----1----3-----|--5----3-----1-----0-----|-------0----1----3-----|
--3--------------------|-------------------------|--3--------------------|
-----------------------|-------------------------|-----------------------|


  E  E  Q    E  E  E  E     E  E  E  E  E  E  E  E     E  E  E  E  E  E  E  E   
-------------------------|--------------------------|--------------------------|
----------------------1--|--------1--1--------1--1--|--------1--1--------1--1--|
--0--2--3-------2--3-----|--0--0--------0--0--------|--0--0--------0--0--------|
--5-----3----1-----0-----|--------------------0-----|--2-----0-----------------|
-------------------------|--0-----2-----3-----------|--------------3-----2-----|
-------------------------|--------------------------|--------------------------|


  E  E  E  E  E  E  E  E     E  E  E  E  E  E  E  E   
--------------------------|--------------------------|
--------1--1--------1--1--|--------1--1--------1--1--|
--0--0--------0--0--------|--0--0--------0--0--------|
--------------------0-----|--1-----0-----------------|
--0-----2-----3-----------|--------------3-----2-----|
--------------------------|--------------------------|


  E  E  E  E  E  E  E  E     E  E  E  E  E  E  E  E   
--------------------------|--------------------------|
--------1--1--------1--1--|--------1--1--------1--1--|
--0--0--------0--0--------|--0--0--------0--0--------|
--------------------0-----|--2-----0-----------------|
--0-----2-----3-----------|--------------3-----2-----|
--------------------------|--------------------------|


  E  E  E  E  E  E  E  E     E  E  E  E  E  E  E  E   
--------------------------|--------------------------|
--------1--1--------1--1--|--------1--1--------1--1--|
--0--0--------0--0--------|--0--0--------0--0--------|
--------------------0-----|--1-----0-----------------|
--0-----2-----3-----------|--------------3-----2-----|
--------------------------|--------------------------|


  E  E  E  E  E  E  E  E     E  E  E  E  E  E  E  E   
--------------------------|--------------------------|
--------4--4--------4--4--|--------4--4--------4--4--|
--3--3--------3--3--------|--3--3--------3--3--------|
--------0-----1-----3-----|--5-----3-----1-----0-----|
--3-----------------------|--------------------------|
--------------------------|--------------------------|


  E  E  E  E  E  E  E  E     E  E  E  E  E  E  E  E   
--------------------------|--------------------------|
--------4--4--------4--4--|--------4--4--------4--4--|
--3--3--------3--3--------|--3--3--------3--3--------|
--------0-----1-----3-----|--5-----3-----1-----0-----|
--3-----------------------|--------------------------|
--------------------------|--------------------------|


  E  E  E  E  E  E  E  E     E  E  E  E  E  E  E  E   
--------------------------|--------------------------|
--------4--4--------4--4--|--------4--4--------4--4--|
--3--3--------3--3--------|--3--3--------3--3--------|
--------0-----1-----3-----|--5-----3-----1-----0-----|
--3-----------------------|--------------------------|
--------------------------|--------------------------|


  E  E  E  E  E  E  E  E     E  E  E  E  E  E  E  E     Q    Q    Q    E  E   
--------------------------|--------------------------|-----------------------|
--------4--4--------4--4--|--------4--4--------4--4--|--3----1----0----------|
--3--3--------3--3--------|--3--3--------3--3--------|--------------------2--|
--------0-----1-----3-----|--5-----3-----1-----0-----|-------0----2----4-----|
--3-----------------------|--------------------------|--3--------------------|
--------------------------|--------------------------|-----------------------|


  Q    E  E  E  E  E  E     Q    Q    Q    E  E     E  E  Q    E  E  E  E   
-------------------------|-----------------------|-------------------------|
--0----------------0--1--|--3----1----0----------|--------0----------0--1--|
----------2--0--2--------|--------------------2--|--0--2--2-------2--------|
--5----4-----2-----0-----|-------0----2----4-----|--5----------5-----4-----|
-------------------------|--3--------------------|-------------------------|
-------------------------|-----------------------|-------------------------|


  Q    Q    Q    E  E     Q    E  E  E  E  E  E     Q    Q    Q    E  E   
-----------------------|-------------------------|-----------------------|
--3----1---------------|----------------------1--|--3----1---------------|
------------3-------2--|--3-------2--0--2--3-----|------------3-------2--|
-------0----1----3-----|--5----3-----1-----0-----|-------0----1----3-----|
--3--------------------|-------------------------|--3--------------------|
-----------------------|-------------------------|-----------------------|


  E  E  Q    E  E  E  E     Q    Q    Q    E  E     Q    E  E  E  E  E  E   
-------------------------|-----------------------|-------------------------|
----------------------1--|--3----1----0----------|--0----------------0--1--|
--0--2--3-------2--3-----|--------------------2--|----------2--0--2--------|
--5-----3----1-----0-----|-------0----2----4-----|--5----4-----2-----0-----|
-------------------------|--3--------------------|-------------------------|
-------------------------|-----------------------|-------------------------|


  Q    Q    Q    E  E     E  E  Q    E  E  E  E     Q    Q    Q    E  E   
-----------------------|-------------------------|-----------------------|
--3----1----0----------|--------0----------0--1--|--3----1---------------|
--------------------2--|--0--2--2-------2--------|------------3-------2--|
-------0----2----4-----|--5----------5-----4-----|-------0----1----3-----|
--3--------------------|-------------------------|--3--------------------|
-----------------------|-------------------------|-----------------------|


  Q    E  E  E  E  E  E     Q    Q    Q    E  E     E  E  Q    E  E  E  E   
-------------------------|-----------------------|-------------------------|
----------------------1--|--3----1---------------|----------------------1--|
--3-------2--0--2--3-----|------------3-------2--|--0--2--3-------2--3-----|
--5----3-----1-----0-----|-------0----1----3-----|--5-----3----1-----0-----|
-------------------------|--3--------------------|-------------------------|
-------------------------|-----------------------|-------------------------|


  Q    Q    Q    Q       E  E  E  E  E  E  E  E     E  E  E  E  E  E  E  E   
----------------------|--------------------------|-----------------------1--|
--1-------------------|--------------------------|--------------1--3--4-----|
-------0---------0----|--------------------------|--1-----1--3--------------|
------------0---------|--1--3--1--3--1-----3--4--|-----4--------------------|
----------------------|-----------------2--------|--------------------------|
----------------------|--------------------------|--------------------------|


  H        Q    Q      
-----------1----2----||
--4------------------||
---------------------||
---------------------||
---------------------||
---------------------||




Duration Legend
---------------
W - whole
H - half
Q - quarter
E - 8th
S - 16th
T - 32nd
X - 64th
. - note dotted
|-n-|  - n-tuplets


Tablature Legend
----------------
L - tied note
x - dead note
g - grace note
(n) - ghost note
> - accentuded note
NH - natural harmonic
AH - artificial harmonic
TH - tapped harmonic
SH - semi harmonic
PH - pitch harmonic
h - hammer on
p - pull off
b - bend
br - bendRelease
pb - preBend
pbr - preBendRelease
brb - bendReleaseBend
\n/ - tremolo bar dip
\n - tremolo bar dive
-/n - tremolo bar Release up
/n\ - tremolo bar inverted dip
/n - tremolo bar return
-\n - tremolo bar Release down
S - shift slide
s - legato slide
/ -  slide into from below or out of upwards
\ -  slide into from above or out of downwards
~ - vibrato
W - wide vibrato
tr - trill
TP - tremolo picking
T - tapping
S - slap
P - pop
< - fade in
^ - brush up
v - brush down
comments
We did not receive enough feedback on this tab! Please rate:
print report bad tab
1 2 3 4 5
I want to post or [tab]
guest
You may want to rate the tab now too:
select rating
Please do not post tabs as comments. Select "correction" instead!