Oops, an error
Loading. Please wait.

Final Fantasy X - To Zanarkand Tab

version 2
version 2

Whole song

Interactive

102,360 views 48 this week
5 commentsread comments
1 2 3 4 5
x 20
add to favorites
launch autoscroll
font size
0
reset
how to read this tab
guitar tuner
Autoscroll
slow
fast
+/-
esc
set tempo
stop
Help us to improve Ultimate-Guitar.com Take our survey!
×
-------------------------------------------------------------------------------
                             To Zanarkand - Final Fantasy X
-------------------------------------------------------------------------------
Tabbed by:heyitsthemokid

Tuning:Standard

|----0-----------------0-----2------|---3----------|----------------------0---|
|-----------------0-----------------|---1----------|--3--------------3--------|
|-------------0---------------------|--------------|-------------2------------|
|---------2-------------------------|--------------|--0---0---4---------------|
|-----------------------------------|--------------|-----------------3--------|
|----0-----------------0------------|---3----------|--------------------------|

|----2----------|----------------------------------|--------------------------|
|----3----------|---0---------0-----------0--------|----0---------3-----------|
|---------------|----------------------------------|---------2----------------|
|---------------|-------------------------2------4-|----5---------------------|
|----2----------|---3---------5-----3--------------|--------------------------|
|---------------|--------3-------------------------|--------------------------|

|-------------------------------|-------------|----0---------0---------0------|
|-------------------------------|-------------|-------------------------------|
|-------------------------------|---4---------|------------------------5----7-|
|--4------------------0----4----|-------------|--------------9----7-----------|
|--2--------2----4--------------|-------------|---------7---------------------|
|-------2-----------------------|-------------|----5--------------------------|

|----0----------3----|-------------------------------|--------------------5--8|
|--------------------|---1-----------------------1---|---6-------6----8-------|
|----5----7----------|----------------------2--------|-------5----------------|
|----7---------------|------------3----5-------------|------------------------|
|--------------------|-------3-----------------------|------------------------|
|--------------------|---1---------------------------|------------------------|

|---0----------------0---2--|---3--------------------------|------------------|
|---------------0-----------|------------7----5----5-------|------------5--7--|
|--------------------0---2--|------------7---------5-------|--7------7-----7--|
|-----------2---4-----------|--------5-----------------5---|------7-----------|
|-------2-------------------|---3--------------------------|--5--------------5|
|---0-----------------------|------------------------------|------------------|

|---------------------------|---0-----------------0---2--|--3--------------3--|
|------------------------3--|-----------------0----------|---------7---5------|
|---4----------------4------|---------------------0---2--|---------7-------5--|
|-----------5----7----------|------------2----4----------|------5------------5|
|-------5-------------------|--------2-------------------|--3-----------------|
|---3-----------------------|---0------------------------|--------------------|

|--5-----------3---5------|---7-----------------------|---0--------------0---2|
|--------------5---7------|------------------------3--|--------------0--------|
|----------7-----------7--|--------------------4------|------------------0---2|
|------7------------------|-----------5----7----------|----------2---4--------|
|--5----------------------|-------5-------------------|------2----------------|
|-------------------------|---3-----------------------|---0-------------------|

|---3--------------------------|------------------|-------------------3---5---|
|------------7----5----5-------|------------5--7--|-----------------------3---|
|------------7---------5-------|--7------7-----7--|---4---------------4-------|
|--------5-----------------5---|------7-----------|-----------5----7----------|
|---3--------------------------|--5--------------5|-------5-------------------|
|------------------------------|------------------|---3-----------------------|

|--7-------7--------7------|----7-----5-----10---|----------------------------|
|--5-------5--------5------|----7----------------|--8-----------8----7--------|
|--------------------------|---------------------|-------------------4-----7--|
|------5-------5--------5--|---------------------|----------7-----------------|
|--------------------------|----5----------------|------7---------------------|
|--------------------------|---------------------|--5-------------------------|

|-------------------3---8--|--------------------------|-------------------0---|
|---5-----------5----------|---5---------------5---8--|--------------0----1---|
|---5-------5--------------|---------------5----------|--2-------2------------|
|-------5------------------|-----------5--------------|------2---------------2|
|---3----------------------|-------7------------------|--0--------------------|
|--------------------------|--------------------------|-----------------------|

|--0----------------------|-------------------3-------|----3------------------|
|----------3-------1------|-----------------------3---|-----------------------|
|--------------0---2------|--4----------------4-------|-------------------0--2|
|----------3--------------|----------5----7-----------|------------2---4------|
|------3---------------3--|------5--------------------|--------2--------------|
|--1----------------------|--3------------------------|----0------------------|

|--------------------2------|---2--------|------------------0------|--0----------|
|---------------2----3----5-|---2--------|--------------0---1------|------4------|
|--4--------4---------------|---2--------|--2-------2------------2-|-------------|
|------4--------------------|------------|------2------------------|-------------|
|--2------------------------|------------|--0----------------------|--2-----2---0|
|---------------------------|------------|-------------------------|-------------|

|--------------------2------|---2-------0----------------|----------------5------|
|---------------2----3------|-------------------3--------|--2-------------2------|
|--4-------4----------------|-----------0---2---4--------|--------2---4----------|
|------4-----------------4--|-------0---------------0----|-----2--------------2--|
|--2------------------------|----------------------------|--0--------------------|
|---------------------------|---3------------------------|-----------------------|

|--5------------------------|
|---------------------------|
|-------------------2----4--|
|-----------4---6-----------|
|-------4-------------------|
|--2------------------------|

|---4-----------|---------2---|------------|--------------------------|
|-------5-------|---------0---|--2---------|--------------------4---7-|
|---6--------6--|---4-----0---|--2-------2-|---4------------4---------|
|---6-----------|---5---------|--4----4----|-----------6--------------|
|---4-----------|-------------|------------|---2---2------------------|
|---------------|---3---------|------------|--------------------------|
Suggest correction
comments
print report bad tab
5 comments total. Showing first comments.
-2 reply
neXus.DuCi 10 Nov 02, 2007 12:50 PM

not so good-.-

+2 reply
dungeons0 10 Feb 12, 2009 03:59 AM

Mmm, this is alright, its not amazing, but its alright.

-Dungeons0

0 reply
BicBen 10 Jul 16, 2009 01:00 PM

It sounds like To Zanarkand, but it isn't 100% already in the first line -.-

guest
You may want to rate the tab now too:
select rating
Wanna post a correction for this tab? Suggest correction