Oops, an error
Loading. Please wait.

Final Fantasy X - To Zanarkand Tab

version 4
version 4

Whole song

Interactive

27,670 views 201 this week
5 commentsread comments
1 2 3 4 5
excellent!
x 21
add to favorites
launch autoscroll
font size
0
reset
how to read this tab
guitar tuner
Autoscroll
slow
fast
+/-
esc
set tempo
stop
Help us to improve Ultimate-Guitar.com Take our survey!
×
Author
Difficulty
novice
To Zanarkand - Final Fantasy X
Tabbed by: guitarist69r
Email: guitarist69r@outlook.com
Date: 12th, July 2012

Finger Picking

e|--0-----------0--2---3-------------------------0---2------|
B|--0--------0---------1-----------3----------3------3------|
G|--0------------------------------2-------2----------------|
D|--2-----------0------3-----------0------------------------|
A|--------------------------------------------3------2------|
E|----------------------------------------------------------|

e|------------------------------------2----------------|
B|--0---0---0----0-------3---------3-----3------3------|
G|--0------------0---2----------4-----------4----------|
D|--2------------2-----------4-------------------------|
A|--3------------3-----------2-------------------------|
E|-----------------------------------------------------|

e|--0---0---0----0-------3-------------------------------------1--|
B|--1---1---1----1---3-------1-----------1------------------1-----|
G|--2------------2--------------------2-----2------------2--------|
D|---------------------------------3------------------3-----------|
A|--0------------0--------------3------------------3--------------|
E|---------------------------1------------------1-----------------|

e|--0-----------0--2---3---2---0------------0--------------------------|
B|-----------0---------0-----------3-----------3--1--0-----------0--3--|
G|-----------------------0---0---0-------2-----------------0--2--------|
D|--------2---------------------------0-----------------0--------------|
A|-----2---------------3-----------------------------------------------|
E|--0------------------------------2-----------------3-----------------|

e|--0-----------0--2---3---2---3---5--------3--5-----7-----------------|
B|-----------0---------0-----------------3-----------0-----------0--3--|
G|-----------------------0---0---0----2--------------0-----0--2--------|
D|--------2------------------------0--------------------0--------------|
A|-----2---------------3-----------------------------------------------|
E|--0------------------------------------------------3-----------------|

e|--0-----------0--2---3---2---0------------0--------------------------|
B|-----------0---------0-----------3-----------3-----0-----------------|
G|-----------------------0---0---0-------2-----------------0-----0--2--|
D|--------2---------------------------0-----------------0-----0--0-----|
A|-----2---------------3-----------------------------------------------|
E|--0------------------------------2-----------------3-----------------|

e|----------------------------------------------------------0-----------0-----------0--3--|
B|--0-----0-----0------0-------3----------------------------0--------1-----------1--------|
G|--0-----0-----0------2---2-------0--------0------------0--------0-----------0-----------|
D|-----2-----2-----2---0-----------------2-----4--0---2--------2-----------2--------------|
A|--3---------------------------------0--------2------3-----------------------------------|
E|---------------------2-----------0------------------------------------------------------|

e|--------------0------0-----------------------------3-----3------------------|
B|---------------------------3-----1-----0-----------0--------------------0---|
G|--2---------------------2-----2-----2-----------------0--------------0------|
D|--------2--------2---------------------------0-----------------2h-4---------|
A|-----0-----0------------------------------------------------2---------------|
E|---------------------1--------------------3-----3--------0------------------|

e|--------------2------2-----------------------0---------------|
B|--------------3------2------------------------------5--4-----|
G|--4--------------4---2-----------2------------------4--------|
D|--------4------------------------------2--------2---4--------|
A|-----2-----2------------------------0-----0---------2--------|
E|---------------------2---------------------------------------|

e|--------------2------2-----0-----------------------5------5--|
B|--------------3------0-----------3-----2-----------0--2---2--|
G|--4--------------4------0-----0-----0-----------2---------2--|
D|--------4------------------------------------2---------------|
A|-----2-----2------------------------------0------------------|
E|---------------------3------------------------------------2--|

e|----------4----------------2---------------------------2------------|
B|------0---5---5------0-----0------------------------4-----4---------|
G|--1-------6------6---0-----0----2------2---4-----4-----------4------|
D|----2----------------0--------------4---------4---------------------|
A|----------4---------------------4----------2------------------------|
E|---------------------3----------2-----------------------------------|


************************************

| h  Hammer-on 

************************************

Don't forget to rate and comment!
Thanks.
Suggest correction
What's this?
You can suggest a correction to this tab. Community and Mods will review your correction and vote to approve or reject it.
comments
print report bad tab
5 comments total. Showing first comments.
0 reply
Tribeltec 11 wrote on July 11 2014, 03:52 pm

Best sounding version of this song, imo.

0 reply
slug22u 12 wrote on July 19 2014, 10:57 am, edited at 10:58 am

Only change I'd make:Lines 9 and 10 can be played slightly more easily. Since you're playing a Bm, simply bar the Bm and pluck the 4th fret on the G string instead of open on the B string.---------- ---------- ---------- -0---------4-------- ---------------4---- -----4-------2---2-- ---2---2------------ ----------Otherwise, phenomenal tab.

0 reply
slug22u 12 wrote on July 19 2014, 10:59 am

Let me edit since the top one got messed up:

----------
----------
-4--------
-----4----
---2---2--
----------

Is slightly easier than

----------
-0--------
----------
-----4----
---2---2--
----------

guest
You may want to rate the tab now too:
select rating
Please do not post tabs as comments. Select "correction" instead!