Oops, an error
Loading. Please wait.

Final Fantasy X - Yunas Theme Tab

9,644 views 3 this week
no commentswrite comment
1 2 3 4 5
accurate
x 4
add to favorites
launch autoscroll
font size
0
reset
how to read this tab
guitar tuner
Autoscroll
slow
fast
+/-
esc
set tempo
stop
Help us to improve Ultimate-Guitar.com Take our survey!
×
Author
-------------------------------------------------------------------------------
                        YUNA’S THEME – Final Fantasy X
-------------------------------------------------------------------------------

Song title:       Yuna's Theme
Series name:      Final Fantasy X
Transcribed by:   Nyze (Qshay52@yahoo.com)


This tab might be a bit confusing. When I listened to the song,
I simply tabbed parts I liked, so I didn't just tab
a single instrument the whole way through or anything like that.
To help, I put in around the time that each part starts.


Intro
-----3-5--13-------17--12-|
-----5-6-----12-13--------|
---5----------------------|
-3------------------------|
--------------------------|
--------------------------|

About 13 seconds in; (this riff is classic FFX)
---------------------------------------------------------------|
---------------------------------------------------------------|
----------17-------------------------------17------------------|
-15-17-19----17--19-17-15----15-15---17-19----17-15-14---------|
--------------------------17---------------------------17------|
---------------------------------------------------------------|

-----------------------------------------------------------|
-----------------------------------------------17----------|
----------17-------------------------------17-----17-19----|
-15-17-19----17--19-17-15----15-15---17-19-----------------|
--------------------------17-------------------------------|
-----------------------------------------------------------|


The part that comes after it;
---------------------------------------------------------------------|
-----------------------------------------------------------17--------|
-19-17-15-14---17-14----------------14-12----12-14------14----17-19--|
---------------------14-12-15-15----------15-------------------------|
---------------------------------------------------15----------------|
---------------------------------------------------------------------|

This is the quiet part that comes in, about a 1:06 seconds in
---------------------------------------------------------------------|
----11-10-8-------------11-10-8--------------------------------15----|
------------10-9-7--------------10-9-12---------11-14----11-14-------|
-12------------------12----------------------12-------12-------------|
------------------------------------------12-------------------------|
---------------------------------------------------------------------|

This part is similar to the 'classic FFX riff'
----------17------------------------------17-15--------------|
-15-17-19----17--19-17-15----15-15--17-18-------18-17-15-----|
--------------------------16---------------------------------|
-------------------------------------------------------------|
-------------------------------------------------------------|
-------------------------------------------------------------|

 About  1:37 seconds in;
----------------------- ----------------------------|
-15-14-17-15-14-15----- ----------------------------|
-------------------15-- ------------17--------------|
----------------------- ---15-17-19----17...--------|
----------------------- ----------------------------|
----------------------- ----------------------------|

| /  slide up
| \  slide down
| h  hammer-on
| p  pull-off
| ~  vibrato
| +  harmonic
| x  Mute note
===============================================================================

Plz rate my first ever tab, thx!

For Any Comments e-mail me at Wrkgnze52@yahoo.com or at Qshay52@yahoo.com
God Bless Peace and Whole Lotta Love<:!

                             <<>>
Suggest correction
comments
print report bad tab
guest
You may want to rate the tab now too:
select rating
Please do not post tabs as comments. Select "correction" instead!