Oops, an error
Loading. Please wait.

Final Fantasy Xiii - 2 - The Story So Far Tab

10 views 3 this week
no commentswrite comment
1 2 3 4 5
3 more votes to show rating
add to favorites
launch autoscroll
font size
0
reset
how to read this tab
guitar tuner
Autoscroll
slow
fast
+/-
esc
set tempo
stop
Help us to improve Ultimate-Guitar.com Take our survey!
×
Author
Difficulty
About this tab version
This tab is just for the main piano. Was this info helpful? Yes No
Tabbed by: MetalWarrior34

e|-------------16------19-18----|--18-16-------16--------------|
B|--16-18-19-------19-----------|----------19------18----------|
G|------------------------------|------------------------------|
D|------------------------------|------------------------------|
A|------------------------------|------------------------------|
E|------------------------------|------------------------------|

e|-------------16------19-18----|--18-16-------16--------------|
B|--16-18-19-------18-----------|----------19------18----------|
G|------------------------------|------------------------------|
D|------------------------------|------------------------------|
A|------------------------------|------------------------------|
E|------------------------------|------------------------------|

e|-------------16------19-18----|--18-16-------16--------------|
B|--16-18-19-------19-----------|----------19------18----------|
G|------------------------------|------------------------------|
D|------------------------------|------------------------------|
A|------------------------------|------------------------------|
E|------------------------------|------------------------------|

e|-------------16------19-18----|--18-16-------16--------------|
B|--16-18-19-------18-----------|----------19------18----------|
G|------------------------------|------------------------------|
D|------------------------------|------------------------------|
A|------------------------------|------------------------------|
E|------------------------------|------------------------------|

e|-------------16------20-18----|--18-16-------16--------------|
B|--16-18-19-------19-----------|----------19------18----------|
G|------------------------------|------------------------------|
D|------------------------------|------------------------------|
A|------------------------------|------------------------------|
E|------------------------------|------------------------------|

e|-------------16------19-18----|--18-16-------16--------------|
B|--16-18-19-------19-----------|----------19------18----------|
G|------------------------------|------------------------------|
D|------------------------------|------------------------------|
A|------------------------------|------------------------------|
E|------------------------------|------------------------------|

e|-------------16------19-18----|--18-16-------16--------------|
B|--16-18-19-------19-----------|----------19------18----------|
G|------------------------------|------------------------------|
D|------------------------------|------------------------------|
A|------------------------------|------------------------------|
E|------------------------------|------------------------------|

(Once you finish this last measure go back to the top and repeat
everything until the song ends)
e|-------------16------19-18----|--18-16-------16--------------|
B|--16-18-19-------18-----------|----------19------18----------|
G|------------------------------|------------------------------|
D|------------------------------|------------------------------|
A|------------------------------|------------------------------|
E|------------------------------|------------------------------|
Suggest correction
Give kudos to tab author, rate the tab!
1 2 3 4 5
comments
print report bad tab
guest
You may want to rate the tab now too:
select rating
Wanna post a correction for this tab? Suggest correction