Oops, an error
Loading. Please wait.

Final Fantasy Xiii - Sayuri Sugawara - Kimi Ga Iru Kara Tab

2,000 views 1 this week
no commentswrite comment
1 2 3 4 5
please rate
add to favorites
launch autoscroll
font size
0
reset
how to read this tab
guitar tuner
Autoscroll
slow
fast
+/-
esc
set tempo
stop
Help us to improve Ultimate-Guitar.com Take our survey!
×
----------------------------------------------------------------------------
        SAYURI SUGAWARA - KIMI GA IRU KARA INTRO(OST. FINAL FANTASY XIII)
----------------------------------------------------------------------------
title KIMI GA IRU KARA INTRO(OST. Final Fantasy XIII)
song by Sayuri Sugawara

tabbed by cradth helverd


INTRO

e|------4--------------------2s9---7--6h7p6-4---------0----------------2-------|
B|--4-----4---0-2-4-2----------0------------5---------0---4--0--2-0-2-----4----|
G|--4-----0-------------------------------------4------------------------------|
D|--3---------------1-----1----0-------------------6--6-------------------5----|
A|---------------------1--------------------4----------------------------------|
E|--------0-----------------------------------------------------2---------3----|



fine, hope u like it! ^^
any comments, questions or corrections, 
then mail me/add my facebook at cradth@hotmail.com
thanks--

Suggest correction
Give kudos to tab author, rate the tab!
1 2 3 4 5
comments
print report bad tab
guest
You may want to rate the tab now too:
select rating
Please do not post tabs as comments. Select "correction" instead!