Oops, an error
Loading. Please wait.

Final Fantasy Xv - Somnus tab

version 1
version 1

Whole song

  • Tabbed by basisti94, you can find the original at game tabs.

Interactive

4,498 views 33 this week
no commentswrite comment
1 2 3 4 5
x 10
add to favorites
×
Save as Personal and add changes to this tab that will be seen only by you. Learn more ›
×
You can save this tab as Personal to edit and correct it or add notes. All changes will be seen only by you. Learn more »
launch autoscroll
font size
0
reset
how to read this tab
guitar tuner
edit
Autoscroll
slow
fast
+/-
esc
set tempo
stop
About this tab version
Tabbed by basisti94, you can find the original at game tabs. Was this info helpful? Yes No
Somnus
                                
Final Fantasy XV
Yoko Shimomura
Guitar Arrangement by Basisti94 (Miro Laaksonen)

Tempo ~ 120
     ^                                         ^                  
     W                   H        Q    Q       H.           Q     
e|-------------------|---------------------|--------------------|
B|--1----------------|--0------------------|---------------1----|
G|--0----------------|--0--------0---------|--2-----------------|
D|--2----------------|--0-------------2----|--3-----------------|
A|--0----------------|---------------------|--3-----------------|
E|-------------------|--3------------------|--1-----------------|


                           ^                                     
    Q    Q.     E.  E.     W                   W                 
e|------------------0---|-------------------|-------------------|
B|--0----1------3-------|--1----------------|-------------------|
G|----------------------|--0----------------|-------------------|
D|--0-------------------|--2----------------|-------------------|
A|----------------------|--0----------------|-------------------|
E|--------------0-------|-------------------|--3----------------|


    ^                                        ^                  
    W                   H        H           H.           Q     
e|-------------------|--------------------|--------------------|
B|--1----------------|--L-----------------|---------------1----|
G|--2----------------|--L-----------------|--2-----------------|
D|--3----------------|--L-----------------|--2-----------------|
A|-------------------|--------------------|--0-----------------|
E|--1----------------|--L--------3--------|--------------------|


                                               ^                    
    H        Q    Q       H.           Q       H        E  E.  E.   
e|---------------------|--------------------|----------------------|
B|--0--------1----3----|---------------1----|--0-----------1---3---|
G|--0------------------|--2-----------------|--1-------------------|
D|--0------------------|--3-----------------|--0-------------------|
A|---------------------|--3-----------------|----------------------|
E|--3------------------|--1-----------------|-----------0----------|


                         ^                                       
    H        H           H        H           H.           Q     
e|--------------------|--0-----------------|--------------------|
B|--1--------1--------|--0--------3--------|--1------------1----|
G|--2-----------------|--0-----------------|--2-----------------|
D|--2-----------------|--------------------|--3-----------------|
A|--0-----------------|--------------------|--------------------|
E|--------------------|--3-----------------|--1-----------------|


                                                        ^                 
                       |----3----|    |----3----|                         
  H        H           Q    Q    Q    Q    Q    Q       W                 
-----------0--------|---------------------------0----|--5----------------|
--3-----------------|----------------------1---------|--5----------------|
--------------------|--2--------------2--------------|--5----------------|
--------------------|------------3-------------------|--7----------------|
--------------------|-------3------------------------|-------------------|
--L-----------------|--1-----------------------------|-------------------|

  Tempo ~ 90
                                                 ^                ^         
    E  E  E  E  E  E  E  E     E  E  E  E  E  E  Q       H        H         
e|--0--0--------------------|--------------------0----|--------------------|
B|--------3--0--1--3--0--1--|--0-----0--3--1--0--0----|--L-----------------|
G|--------------------------|-----2--------------2----|--L--------2--------|
D|--------------------------|--------------------0----|--L--------2--------|
A|--------------------------|-------------------------|-----------0--------|
E|--------0-----------------|--1----------------------|--------------------|

Tempo ~ 120

    H.           Q       H        Q    Q       H.           Q     
e|--------------------|---------------------|--------------------|
B|---------------1----|--0--------1----3----|---------------1----|
G|--2-----------------|--0------------------|--2-----------------|
D|--2-----------------|--0------------------|--3-----------------|
A|--0-----------------|---------------------|--3-----------------|
E|--------------------|--3------------------|--1-----------------|


           |----3----|                                              
  H        Q    Q    Q       W                   H        H         
--------------------------|-------------------|--0-----------------|
--0--------1----3----1----|--1----------------|--0--------3--------|
--1-----------------------|--2----------------|--0-----------------|
--0--------2--------------|--2----------------|--------------------|
--------------------------|--0----------------|--------------------|
--------------------------|-------------------|--3-----------------|


                                            |----3----|    |----3----|     
  H.           Q       H        H           Q    Q    Q    Q    Q    Q     
--------------------|-----------0--------|--5------------------------1----|
--1------------1----|--3-----------------|----------------------1---------|
--2-----------------|--------------------|-----------------2--------------|
--2-----------------|--------------------|------------3-------------------|
--------------------|--------------------|-------3------------------------|
--1-----------------|--L-----------------|--1-----------------------------|

                           Tempo ~ 170
  |----3----|                                                       
  Q    Q    Q    Q    Q       Q    E  E  E  E     Q    E  E  E  E   
-------5-------------------|-------------------|-------------------|
--5----5----5----1---------|--1----------0--1--|--3----1-----0--1--|
--5---------5----2----2----|-------2-----------|--0----------------|
-----------------2----2----|-------2-----------|-------------------|
--0------------------------|-------------------|-------------------|
---------------------------|--1-------1--------|--3-------3--------|


    Q    E  E  Q       Q    E  E  E  E     Q    E  E  E  E     Q    E  E  Q     
e|------------------|-------------------|--0----------------|------------------|
B|--0----------0----|--3----1-----0--1--|-------------3--1--|--0----1-----0----|
G|--0----2-----0----|--0----------------|-------2-----------|--1----2-----1----|
D|--2----2-----2----|--2----------------|--0-------0--------|--2-------2-------|
A|--0-------0-------|--2-------2--------|-------------------|------------------|
E|------------------|-------------------|-------------------|------------------|


    E  Q    Q    E     Q    E  E  Q       Q.     E  E  E     Q.     E  E  E   
e|------------------|--5----0----------|------------------|------------------|
B|------------------|-------------1----|------------0--1--|--0---------1--3--|
G|--2---------------|------------------|--2---------------|--0---------------|
D|--3---------------|------------------|------------------|--2---------------|
A|------------------|------------------|------------------|------------------|
E|--1--1----1----1--|--1-------1-------|--1------1--------|--3------3--------|


    Q    E  E  E  E     Q    E  E  E  E     Q.     E  E  E     Q    E  E   Q     
e|--0----------0-----|-------------------|--0---------7--0--|--7----8-----10----|
B|-------0--------0--|--3----1-----0--1--|------------------|-------------------|
G|--1----1-----1--1--|--2----------------|------------------|----------0--------|
D|-------------------|-------------------|------------------|-------------------|
A|-------------------|--0-------0--------|------------------|-------------------|
E|--4-------4--------|-------------------|--1------1--------|--3----------------|


    Q    Q    Q       Q.     Q.        Q    Q    Q       Q    Q    Q     
e|--8----5----0----|----------------|-----------------|-----------------|
B|-----------------|--1-------------|--0--------------|-----------------|
G|-----------------|--2------2------|-------2---------|-----------------|
D|-----------------|---------2------|--0---------2----|-----------------|
A|--0--------------|--L-------------|-----------------|--3----2----0----|
E|-----------------|----------------|-----------------|-----------------|

Tempo ~ 115
                                                     |--3--|  |--3-|  |-3|     
  H.           Q       Q    Q    E  E  E  E     Q    E  E  E  Q    E  E  Q     
--------------------|------------------0-----|---------------------------0----|
--0------------0----|--1---------3-----------|--1-------------1----3----------|
--1------------1----|--2---------------------|--------------------------------|
--2-----------------|---------------2-----2--|-------2--2--2--2----2-----2----|
--2-----------------|--0----0----0-----0-----|--------------------------------|
--0------------0----|------------------------|--3----3--3--3--3-------3-------|


  |----3----|    |--3-|  |-3|       |--3--|  |--3--|  |--3--|        
  Q    Q    Q    Q    E  E  S E     E  E  E  E  E  E  E  E  E  Q     
--5----------------------0-------|----------------------------------|
-------1----------------------1--|--3--------1--------0--------1----|
-----------------2---------------|----------------------------------|
------------3---------3----------|-----2--2-----2--2-----2--2-------|
---------------------------------|----------------------------------|
--1----1----1----1----1-----1----|--3--------3--3--3--3--------3----|


  |--3-|  |--3--|  |--3--|  |--3--|     |----3----|               
  Q    E  E  E  E  E  E  E  E  E  E     Q    Q    Q    Q    Q     
-------------------------------------|---------------------------|
--0----------0-----3-----1-----0-----|----------------------0----|
-------2-----------------------------|--2-------------------1----|
-------------------------------------|--3---------3---------2----|
-------------------------------------|--3----3-------------------|
--1-------1-----1-----1-----1-----1--|--1--------------3---------|


  |--3--|  |--3--|  |--3--|  |--3--|     |--3--|  |--3--|  |--3-|  |-3|     
  E  E  E  E  E  E  E  E  E  E  E  E     E  E  E  E  E  E  Q    E  E  Q     
-----------------------------0--------|-------------------------------0----|
--1-----------------3-----------------|--1-----------------1----3----------|
--2-----------------------------------|------------------------------------|
-----2--2--2--2--2-----2--2-----2--2--|-----2--2--2--2--2--2----2-----2----|
--0--------0--0--0--0--------0--------|------------------------------------|
--------------------------------------|--3--------3--3--3--3-------3-------|


  |----3----|    |--3-|  |-3|       |--3--|  |--3--|  |--3--|         
  Q    Q    Q    Q    E  E  S E     E  E  E  E  E  E  E  E  E  E  E   
--5----------------------0-------|-----------------------------------|
-------1----------------------1--|--3--------1--------0--------1--3--|
-----------------2---------------|-----------------------------------|
------------3---------3----------|-----2--2-----2--2-----2--2--------|
---------------------------------|-----------------------------------|
--1----1----1----1----1-----1----|--3--------3--3--3--3--------3-----|


                                                        ^                 
  |----3----|    |----3----|                                              
  Q    Q    Q    Q    Q    Q       H        H           W                 
--0---------0-------------------|--------------------|-------------------|
-----------------3----1----0----|--------------------|--1----------------|
-------2------------------------|--2--------2--------|--0----------------|
--------------------------------|--2-----------------|--2----------------|
--------------------------------|--------------------|--0----------------|
--1-----------------------------|--3-----------------|-------------------|


    ^                     ^                                          
    H        Q    Q       Q    Q    Q    Q       Q    Q    H         
e|---------------------|----------------------|--0----3----7--------|
B|--0------------------|-----------------1----|---------------------|
G|--0--------0---------|--2---------2---------|---------------------|
D|--0-------------2----|--3----3--------------|---------------------|
A|---------------------|--3-------------------|------------0--------|
E|--3------------------|--1-------------------|---------------------|


    W                  
e|--L----------------||
B|-------------------||
G|-------------------||
D|-------------------||
A|--L----------------||
E|-------------------||




Duration Legend
---------------
W - whole
H - half
Q - quarter
E - 8th
S - 16th
T - 32nd
X - 64th
. - note dotted
|-n-|  - n-tuplets

************************************

| ~  Vibrato
| L  tied note

************************************

            
            
Suggest correction
Creating personal tab
Creating personal tab
You can edit any tab online and save it as your Personal.

You can edit, replace or remove any tab part or add personal notes – all changes will be seen only by you.

Personal tabs can be accessed anytime from any device, even offline.
Learn more »
comments
print report bad tab
guest
You may want to rate the tab now too:
select rating
Wanna post a correction for this tab? Suggest correction