Oops, an error
Loading. Please wait.

Fire Emblem - A Knights Oath Tab

version 1
version 1

Whole song

Interactive

831 views 1 this week
no commentswrite comment
1 2 3 4 5
please rate
add to favorites
launch autoscroll
font size
0
reset
how to read this tab
guitar tuner
Autoscroll
slow
fast
+/-
esc
set tempo
stop
Help us to improve Ultimate-Guitar.com Take our survey!
×
Contributor
I tried to make this a more metal version of it, not to mention making the transfer to 
it may not be entirely how you want it to sound but give it a chance


||VERSE||
-------------------------------------|
-------------------------------------|
-------------------------------------|
-------------------------------------|          x4
------10-------8--------7---------5--|
8p7h8-----8p7h8----8p7h8----8p7h8----|

||HARMONIZED VERSE||


---------------------------------------|
---------------------------------------|
---------------------------------------|
-----15-------12-----10-----8----------| x4
-----10-------8------7------5----------|
8p7h8----8p7h8--8p7h8--8p7h8-----------|


||CHORUS||
--------------------------------------|
--------------------------------------|
--------------------------------------|
--------------------------------------| x2
7----7-7h8-----8-8h10-----10-10p8-----|
7----7-7h8-----8-8h10-----10-10p8-----|

--------------------------------------|
--------------------------------------|
--------------------------------------|
--------------------------------------|
7----7-7h8-----8-8h10---10-10h12------|
7----7-7h8-----8-8h10---10-10h12------|



if the timing is off then sorry I tabbed that part wrong but play what feels comfortable

Anyway you just alternate between the first part and last part until the song ends.

Bitch at me, correct, or thank me at r0ssw4rri0r@hotmail.com. And questions too, if you 
any.

Enjoy!
comments
We did not receive enough feedback on this tab! Please rate:
print report bad tab
1 2 3 4 5
I want to post or [tab]
guest
You may want to rate the tab now too:
select rating
Please do not post tabs as comments. Select "correction" instead!