Oops, an error
Loading. Please wait.

Fire Emblem - Eliwoods Theme Tab

1,242 views 1 this week
2 commentsread comments
1 2 3 4 5
3 more votes to show rating
add to favorites
launch autoscroll
font size
0
reset
how to read this tab
guitar tuner
Autoscroll
slow
fast
+/-
esc
set tempo
stop
Help us to improve Ultimate-Guitar.com Take our survey!
×
Author
Difficulty
intermediate
Eliwoods theme from fire emblem, the best game ever. Great song, and I'm almost sure
is correct. There is a harmony guitar for a few parts but i tried to do the song to sound
with only itself. Enjoy
Standard tuning

  (can play --6//////16-------------------------------------------| if easier for you)
--6-8-9-11-13-15-16----------------|-------11---------------------|
-----------------------------------|------------14------13--------|
-----------------------------------|--13--------------------------|
------------------------------13---|------------------------------|
-----------------------------------|------------------------------|
-----------------------------------|------------------------------|

-------------------------|---------|---------------------|
--------11-------13------|---------|---------------------|
--13---------------------|---------|-------13------------|
-------------------------|---------|----------------13---|
-------------------------|---------|---------------------|
-------------------------|---------|---------------------|


-------11---------------------|------------11~------------|
------------14------13----11--|--13---14------------------|
--13--------------------------|---------------------------|
------------------------------|---------------------------|
------------------------------|---------------------------|
------------------------------|---------------------------|

------------------------|-------------------------|
------------------------|-------------------------|
------------------------|-------13----------------|
------------------------|----------------13-------|
------------------------|-------------------------|
------------------------|-------------------------|


-------11---------------------|-------------------------|
------------14-------13-------|--------11-------13------|
--13--------------------------|--13---------------------|
------------------------------|-----------------13------|
------------------------------|-------------------------|
------------------------------|-------------------------|

------------------------------------|--------11----------------|
--------------11-13-14--------13----|--14-------------13-------|
-----10-12-13-----------------------|--------------------------|
--13--------------------------------|--------------------------|
------------------------------------|--------------------------|
------------------------------------|--------------------------|


--11---16---14-------13----11---|--16---18---20------------|
--------------------------------|--------------------------|
--------------------------------|--------------------------|
--------------------------------|--------------------------|
--------------------------------|--------------------------|
--------------------------------|--------------------------|

                                       Harmony starts here
--L---------------------------------|--------13--------20----|
------------------------------14----|--16--------------------|
------------------------15-17-------|------------------------|
---------------15-17-18-------------|------------------------|
------------18----------------------|------------------------|
------------------------------------|------------------------|


--L----18--------------|-----------------------|--15----18--------16----|
-----------------16----|--L----16--------------|------------------------|
-----------------------|-----------------17----|------------------------|
-----------------------|-----------------------|------------------------|
-----------------------|-----------------------|------------------------|
-----------------------|-----------------------|------------------------|

(((this harmonizes with the following)<<<<<
-------------------|--11----13--------L--13--|--15--16--18--------L--18--|
-------------------|-------------------------|---------------------------|
-------------------|-------------------------|---------------------------|
-------------------|------------------L------|--------------------L------|
-------------------|-------------------------|---------------------------|
-------------------|-------------------------|---------------------------|
           its a 1/2 bend and i only use it because my guitar doesnt have a 23rd fret 
the Eb needed
--20--21--22pb--------------|-------18--------16----|-------------------|
----------------------20----|--L--------------------|-------------------|
----------------------------|-----------------------|-------------------|
----------------------------|-----------------------|-------------------|>.
----------------------------|--L--------------------|-------------------|>>>
----------------------------|-----------------------|-------------------|>>

stops here ish listen to the song you'll understand
------------------------|-------------------------|-------------------------|
------------------------|-------------------------|-------------------------|
------------------------|-------------------------|--12---13---13-----------|
--------15--------17----|-------18--------L-15---|--------------------------|
--18--------------------|-------------------------|-------------------------|
------------------------|-------------------------|-------------------------|

---------------------------|-------------------------|
---------------------------|-------------------------|
--L--12h13p12--------------|--L----13----------------|
---------------------------|--------------------13---|
---------------------------|-------------------------|
---------------------------|-------------------------|


-------11-------------------|------------------8------|--L------------------|
------------14------13------|--------11-------13------|---------------------|
--13------------------------|--13---------------------|---------------------|
----------------------------|-------------------------|---------------------|
----------------------------|-------------------------|---------------------|
----------------------------|-------------------------|---------------------|


-------------------------|-------11---------------------|
-------------------------|------------14------13----11--|
-------13----------------|--13--------------------------|
--------------------13---|------------------------------|
-------------------------|------------------------------|
-------------------------|------------------------------|

------------11~------------|--L-----------------|-------------------------|
--13---14------------------|--------------------|-------------------------|
---------------------------|--------------------|-------13----------------|
---------------------------|--------------------|----------------13-------|
---------------------------|--------------------|-------------------------|
---------------------------|--------------------|-------------------------|

-------11---------------------|-------------------------|
------------14-------13-------|--------11-------13------|
--13--------------------------|--13---------------------|
------------------------------|-----------------13------|
------------------------------|-------------------------|
------------------------------|-------------------------|

------------------------------------|--------11----------------|
--------------11-13-14--------13----|--14-------------13-------|
-----10-12-13-----------------------|--------------------------|
--13--------------------------------|--------------------------|
------------------------------------|--------------------------|
------------------------------------|--------------------------|


--11---16---14-------13----11---|--16---18---20------------|
--------------------------------|--------------------------|
--------------------------------|--------------------------|
--------------------------------|--------------------------|
--------------------------------|--------------------------|
--------------------------------|--------------------------|


--L---------------------------------|--------13--------20----|
------------------------------14----|--16--------------------|
------------------------15-17-------|------------------------|
---------------15-17-18-------------|------------------------|
------------18----------------------|------------------------|
------------------------------------|------------------------|

--L----18--------------|-----------------------|--15----18--------16----|
-----------------16----|--L----16--------------|------------------------|
-----------------------|-----------------17----|------------------------|
-----------------------|-----------------------|------------------------|
-----------------------|-----------------------|------------------------|
-----------------------|-----------------------|------------------------|


--15------------------|---------------------|------------------------|
----------------------|-------13------------|--L----11--------L--11--|
--------13------------|--L------------------|------------------------|
----------------------|---------------------|------------------------|
----------------------|---------------------|------------------------|
----------------------|---------------------|------------------------|


----------11------------|--L------------------||
--13--14----------------|---------------------||
------------------------|---------------------||
------------------------|---------------------||
------------------------|---------------------||
------------------------|---------------------||

Legend

L - tied note
h - hammer on
p - pull off
b - bend
pb - preBend
Suggest correction
Give kudos to tab author, rate the tab!
1 2 3 4 5
comments
print report bad tab
2 comments total.
0 reply
jms2017 10 Aug 11, 2013 12:55 PM

I feel proud being the first one to look at this tab.

0 reply
jms2017 10 Aug 11, 2013 12:57 PM

sry i meant to say comment this tab

guest
You may want to rate the tab now too:
select rating
Wanna post a correction for this tab? Suggest correction