Oops, an error
Loading. Please wait.

Fire Emblem - Together We Ride Tab

version 2
version 2

Whole song

Interactive

4,641 views 30 this week
2 commentsread comments
1 2 3 4 5
excellent!
x 2
add to favorites
launch autoscroll
font size
0
reset
how to read this tab
guitar tuner
Tab Pro tools
  • play this tab
  • loop segment
  • change instrument
  • show fretboard
  • metronome
Autoscroll
slow
fast
+/-
esc
set tempo
stop
Contributor
Difficulty
advanced
This was extremely hard so please enjoy :)

Intro: Rythmn and Lead (with distortion)

E|-------------------------------------------------------|
B|-------------------------------------------------------|
G|-------------------------------------------------------|
D|-7--8--10--8--7---7------------------------------------|
A|-7--8--10--8--7---7------------------------------------|
E|-5--6---8--6--5---5------------------------------------|x2

Lead can also play this during intro:

E|--------------|------------     |----------------|------------|
B|--------------|------------     |-10-11-13-11-10-|------------|
G|-9-10-12-10-9-|------------     |----------------|------------|
D|--------------|------------     |----------------|-7-8-10-8-7-|
A|--------------|-7-8-10-8-7-     |----------------|------------|
E|--------------|------------     |----------------|------------|



Chorus Lead (with distortion):

E|---------------------------------------------------------|
B|--------------------------------------10-----------------|
G|-9-9----9-10--9----9-10--9----9-10-12----12-10-9-------9-|
D|-----12---------12---------12--------------------12-11---|
A|---------------------------------------------------------|
E|---------------------------------------------------------|

E|--------------------------------------------------------|
B|--------10---------10---------10-10-11-10----10---------|
G|-9----9-----9----9-----9----9-------------12----12-10-9-|
D|---12---------12---------12-----------------------------|
A|--------------------------------------------------------|
E|--------------------------------------------------------|

E|----------------------------------------------|
B|-------------------------------------------10-|
G|-10-9--------10-9--------10-9-------9-9-------|
D|------12----------12----------12-10-----12----|
A|---------12----------12-----------------------|
E|----------------------------------------------|


This is played really fast, try to keep up :)

Chorus Rythmn (with distortion): 

E|------------------------------------|
B|------------------------------------|
G|------------------------------------|
D|-7--3--5--7--7--3--5--7--7--3--5--7-|
A|-5--1--5--7--5--1--5--7--5--1--3--5-|
E|-------3--5--------3--5-------------|

Break Acoustic, Rythmn, or Lead (or without distortion for electric)

Guitar 1
E|-----------------------------------------------------------------10-|
B|-----10-----10-----10-----------10-----10-----10-------10------10---|
G|-9-7----9-7----9-7----9-7---9-7----9-7----9-7--------10------10-----|
D|---------------------------------------------------12------12-------|
A|-------------------------------------------------12------12---------|
E|--------------------------------------------------------------------|x4

Guitar 2                                                        
E|------------------------------------------------------|
B|------------------------------------------------------|
G|-3-5-7-3-5-7-3-5-7-3-5-7--7-9-10-7-9-10-7-9-10-7-9-10-|
D|------------------------------------------------------|
A|------------------------------------------------------|
E|------------------------------------------------------|


Bridge Lead (no distortion):

E|--------------------------------------------------------|
B|-------------------------------------7-10-8-7-----------|
G|---7-9b11-9b11------6-7-9-6b7-6----7------------6-7-9-9-|
D|-7-------------9--9--------------7------------9---------|
A|--------------------------------------------------------|
E|--------------------------------------------------------|

E|----------------------------------------------10-|
B|-15-14-12----------------------------------10----|
G|----------14-12-11-9-7-6-4---------------7-------|
D|---------------------------7-5-4---4-5-7---------|
A|---------------------------------5---------------|
E|-------------------------------------------------|

Rythmn (wth distortion):

E|-2--2--3--0--2--2--3--0--|-------------------------|
B|-3--3--3--2--3--3--3--2--|-------------------------|
G|-2--4--0--2--2--4--0--2--|-------------------------|
D|-0--4--0--2--0--4--0--2--|-7--4--5--7--7--4--5--7--|
A|----2--2--0-----2--2--0--|-5--2--5--7--5--2--5--5--|
E|-------3-----------3-----|-------3--5--------3-----|


Outro:

E|-------------------------------------------------------|
B|-------------------------------------------------------|
G|-------------------------------------------------------|
D|-7--8--10--8--7---7------------------------------------|
A|-7--8--10--8--7---7------------------------------------|
E|-5--6---8--6--5---5------------------------------------|x2


E|--------------|------------     |----------------|------------|
B|--------------|------------     |-10-11-13-11-10-|------------|
G|-9-10-12-10-9-|------------     |----------------|------------|
D|--------------|------------     |----------------|-7-8-10-8-7-|
A|--------------|-7-8-10-8-7-     |----------------|------------|
E|--------------|------------     |----------------|------------|


|---------------------------------------------------------|
B|--------------------------------------10-----------------|
G|-9-9----9-10--9----9-10--9----9-10-12----12-10-9-------9-|
D|-----12---------12---------12--------------------12-11---|
A|---------------------------------------------------------|
E|---------------------------------------------------------|

E|--------------------------------------------------------|
B|--------10---------10---------10-10-11-10----10---------|
G|-9----9-----9----9-----9----9-------------12----12-10-9-|
D|---12---------12---------12-----------------------------|
A|--------------------------------------------------------|
E|--------------------------------------------------------|

E|----------------------------------------------|
B|-------------------------------------------10-|
G|-10-9--------10-9--------10-9-------9-9-------|
D|------12----------12----------12-10-----12----|
A|---------12----------12-----------------------|
E|----------------------------------------------|

|---------------------------------------------------------|
B|--------------------------------------10-----------------|
G|-9-9----9-10--9----9-10--9----9-10-12----12-10-9-------9-|
D|-----12---------12---------12--------------------12-11---|
A|---------------------------------------------------------|
E|---------------------------------------------------------|

E|--------------------------------------------------------|
B|--------10---------10---------10-10-11-10----10---------|
G|-9----9-----9----9-----9----9-------------12----12-10-9-|
D|---12---------12---------12-----------------------------|
A|--------------------------------------------------------|
E|--------------------------------------------------------|

E|----------------------------------------------|
B|-------------------------------------------10-|
G|-10-9--------10-9--------10-9-------9-9-------|
D|------12----------12----------12-10-----12----|
A|---------12----------12-----------------------|
E|----------------------------------------------|

|---------------------------------------------------------|
B|--------------------------------------10-----------------|
G|-9-9----9-10--9----9-10--9----9-10-12----12-10-9-------9-|
D|-----12---------12---------12--------------------12-11---|
A|---------------------------------------------------------|
E|---------------------------------------------------------|

E|--------------------------------------------------------|
B|--------10---------10---------10-10-11-10----10---------|
G|-9----9-----9----9-----9----9-------------12----12-10-9-|
D|---12---------12---------12-----------------------------|
A|--------------------------------------------------------|
E|--------------------------------------------------------|

E|----------------------------------------------|
B|-------------------------------------------10-|
G|-10-9--------10-9--------10-9-------9-9-------|
D|------12----------12----------12-10-----12----|
A|---------12----------12-----------------------|
E|----------------------------------------------|

|---------------------------------------------------------|
B|--------------------------------------10-----------------|
G|-9-9----9-10--9----9-10--9----9-10-12----12-10-9-------9-|
D|-----12---------12---------12--------------------12-11---|
A|---------------------------------------------------------|
E|---------------------------------------------------------|

E|--------------------------------------------------------|
B|--------10---------10---------10-10-11-10----10---------|
G|-9----9-----9----9-----9----9-------------12----12-10-9-|
D|---12---------12---------12-----------------------------|
A|--------------------------------------------------------|
E|--------------------------------------------------------|

E|----------------------------------------------|
B|-------------------------------------------10-|
G|-10-9--------10-9--------10-9-------9-9-------|
D|------12----------12----------12-10-----12----|
A|---------12----------12-----------------------|
E|----------------------------------------------|x2

|---------------------------------------------------------|
B|--------------------------------------10-----------------|
G|-9-9----9-10--9----9-10--9----9-10-12----12-10-9-------9-|
D|-----12---------12---------12--------------------12-11---|
A|---------------------------------------------------------|
E|---------------------------------------------------------|

E|--------------------------------------------------------|
B|--------10---------10---------10-10-11-10----10---------|
G|-9----9-----9----9-----9----9-------------12----12-10-9-|
D|---12---------12---------12-----------------------------|
A|--------------------------------------------------------|
E|--------------------------------------------------------|

E|----------------------------------------------|
B|-------------------------------------------10-|
G|-10-9--------10-9--------10-9-------9-9-------|
D|------12----------12----------12-10-----12----|
A|---------12----------12-----------------------|
E|----------------------------------------------|x2

comments
We did not receive enough feedback on this tab! Please rate:
print report bad tab
1 2 3 4 5
2 comments total.
0 reply
MasterOfRegret wrote on September 22 2011, 08:02 pm

This is exactly the same as CSGuitar89's tab available on his website. Except his has the bass line and harmonies.

0 reply
jms2017 wrote on August 11 2013, 12:52 pm

could u make it more clear what everything is

I want to post or [tab]
guest
You may want to rate the tab now too:
select rating
Please do not post tabs as comments. Select "correction" instead!