Oops, an error
Loading. Please wait.

Flower - Title Theme Tab

6,737 views 9 this week
3 commentsread comments
1 2 3 4 5
x 6
add to favorites
launch autoscroll
font size
0
reset
how to read this tab
guitar tuner
Autoscroll
slow
fast
+/-
esc
set tempo
stop
Help us to improve Ultimate-Guitar.com Take our survey!
×
Author
-----------------------------------------------------------------------------
                Lazy Daydream (Title theme) - Vincent Diamante
-----------------------------------------------------------------------------
Tabbed by: Mikko I
Email: mix.mikko@gmail.com

**********************************************************************

From the Playstation 3 game "Flower"

Flower Original soundtrack: Lazy Daydream (Title song)

The song at youtube (not my video): 
http://www.youtube.com/watch?v=EBT8NUqVXSs&


Tuning: Standard, Capo on the first fret (half step up)

BPM - 72

Main part:

e:-----------------|-----------------|-2-----02--------|-0-------------5|
B:-----2---0-------|-----2---0-------|-----2---0-----23|-----2-------3--|
G:---2-----0-------|---2-----0-------|---2-----0-------|---2------------|
D:-0---------------|-0---------------|-0---------------|-0-------4------|
A:-----------------|-----------------|-----------------|---------2------|
E:-----------------|-----------------|-----------------|----------------|

                                             
e:-----32----------|-----2---2---0---|-----2-02--------|-0-------------5|
B:-------3-----2-02|-3-0-------------|-----2---0-----23|-----------0-3--|
G:---0-0-----2-2---|-0---------------|---2-----0-------|---0-2----------|
D:-2-------4-------|-----------------|-0---------------|---------4------|
A:-----------------|---------0-------|-----------------|-4-------2------|
E:-----------------|-----------------|-----------------|----------------|

        
e:-----32----------|-----2-------0---|-0---------------|----------------|
B:-------3-----3-02|-3-0-------------|-----2---0-------|-----2---0------|
G:---0-0-----2-----|-0-------2-------|---2-----0-------|---2-----0------|
D:-2-------4-------|-----------------|-0---------------|-0--------------|
A:-----------------|-----------------|-----------------|----------------|
E:-----------------|-----------------|-----------------|----------------|

Slow part after the pause:

e:-----------------|-----------------|-----------5-----|---2-3-5---7----|
B:-----------------|--------2---3----|---2-3-5---------|---------3-8----|
G:---------------4-|----2-4----------|---------2-------|----------------|
D:-4-------2--4----|----------4------|-----------------|----------------|
A:-----------------|-----------------|-----------------|----------------|
E:-----------------|-----------------|-----------------|----------------|

e:-2-3----2--------|-----------------|-2--0-2----------|-0--------------|
B:-3------3--5--3--|--0-2-3----------|--------0---2-3--|----------------|
G:-----------6--4--|--0-2-4---2------|-----------------|---2-2----------|
D:-----------------|----------0------|-----------------|----------------|
A:-----------------|-----------------|-----------------|----------------|
E:-----------------|-----------------|-----------------|----------------|

e:-9---5--3--------|-9-5-10----9--10-|-12------10--12--|-12-7-5-0-------|
B:-----------------|-----------10-10-|-12------10--13--|----------------|
G:-----------------|-----------------|-----------------|----------------|
D:-----------------|-----------------|-----------------|----------------|
A:-----------------|-----------------|-----------------|----------------|
E:-----------------|-----------------|-----------------|----------------|

e:-2--0-2----------|-0---------------|-----------------|----------------|
B:--------0---2-3--|-----------------|-----------------|----------------|
G:-----------------|-----------------|-2---------------|----------------|
D:-----------------|-----------------|-----------------|----------------|
A:-----------------|-----------------|-----------------|----------------|
E:-----------------|-----------------|-----------------|----------------|

Suggest correction
comments
print report bad tab
3 comments total.
0 reply
mix1234 31 Jul 23, 2010 09:48 AM

Second last line correction here: ||
vv
e:|-9-5-10----9--10-|-12------10--14--|
B:|-----------10-10-|-12------10--15--|

0 reply
AC~DC 10 Jul 06, 2011 05:10 AM

THANK YOU SO MUCH FOR POSTING THIS TAB!!! Love this song!

0 reply
patches inc 10 Mar 02, 2013 09:59 PM

some needed corrections, tab is alright ***

guest
You may want to rate the tab now too:
select rating
Wanna post a correction for this tab? Suggest correction