Oops, an error
Loading. Please wait.

Friday The 13Th Theme Tab

version 1
version 1

Whole song

Interactive

7,057 views 21 this week
1 commentread comment
1 2 3 4 5
please rate
add to favorites
launch autoscroll
font size
0
reset
how to read this tab
guitar tuner
Autoscroll
slow
fast
+/-
esc
set tempo
stop
Help us to improve Ultimate-Guitar.com Take our survey!
×
Author
-------------------------------------------------------------------------------
                             Friday the 13th Theme for Nintendo
-------------------------------------------------------------------------------
Game: Friday the 13th
Song: Main Theme
Platform: Nintendo

Tabbed by: deathx88
Email: deathx88@yahoo.com

Tuning: Standard




Riff 1 x2

      E   E   E   E   E   E      E   E  E   E   E  E   
E||--14------10--14------10--|--12------9--12------9--|
B||------12----------12------|------11---------11-----|
G||--------------------------|------------------------|
D||--------------------------|------------------------|
A||--------------------------|------------------------|
E||--------------------------|------------------------|


   E   E   E   E   E   E      E   E  E   E   E  E      E   E  E   E   E  E   
--14------10--14------10--|--12------9--12------9--|--12------9--12------9--|
------12----------12------|------11---------11-----|------10---------10-----|
--------------------------|------------------------|------------------------|
--------------------------|------------------------|------------------------|
--------------------------|------------------------|------------------------|
--------------------------|------------------------|------------------------|


   E   E  E   E   E  E      E  E  E   E  E  E     E  E  E  E  E  E   
--11------8--11------8--|--11-----8--11-----8--|--9-----6--9-----6--|
------10---------10-----|------9---------9-----|-----8--------8-----|
------------------------|----------------------|--------------------|
------------------------|----------------------|--------------------|
------------------------|----------------------|--------------------|
------------------------|----------------------|--------------------|




Riff 2

  E  E  E  E  E  E     E  E  E  E  E  E   
--6--3--5--6--3--5--|--6--3--5--6--3--5--|
--------------------|--------------------|
--------------------|--------------------|
--------------------|--------------------|
--------------------|--------------------|
--------------------|--------------------|


  E  E  E  E  E  E     E  E  E  E  E  E   
--6--3--5--6--3--5--|--6--3--5--6--3--5--|
--------------------|--------------------|
--------------------|--------------------|
--------------------|--------------------|
--------------------|--------------------|
--------------------|--------------------|




Riff 3 x2


   E   E   E   E   E   E      E   E   E   E   E  E   
--15----------13------10--|--13----------11------8--|
----------13------13------|----------11------11-----|
------13------------------|------12-----------------|
--------------------------|-------------------------|
--------------------------|-------------------------|
--------------------------|-------------------------|


   E   E  E   E  E   E      E  E  E  E  E  E   
--11---------10---------|--10--------8--------|
----------9------9--11--|---------8-----8--9--|
------10----------------|------8--------------|
------------------------|---------------------|
------------------------|---------------------|
------------------------|---------------------|





Duration Legend
---------------
W - whole
H - half
Q - quarter
E - 8th
S - 16th
T - 32nd
X - 64th
. - note dotted
|-n-|  - n-tuplets


Tablature Legend
----------------
L - tied note
x - dead note
g - grace note
(n) - ghost note
> - accentuded note
NH - natural harmonic
AH - artificial harmonic
TH - tapped harmonic
SH - semi harmonic
PH - pitch harmonic
h - hammer on
p - pull off
b - bend
br - bendRelease
pb - preBend
pbr - preBendRelease
brb - bendReleaseBend
\n/ - tremolo bar dip
\n - tremolo bar dive
-/n - tremolo bar Release up
/n\ - tremolo bar inverted dip
/n - tremolo bar return
-\n - tremolo bar Release down
S - shift slide
s - legato slide
/ -  slide into from below or out of upwards
\ -  slide into from above or out of downwards
~ - vibrato
W - wide vibrato
tr - trill
TP - tremolo picking
T - tapping
S - slap
P - pop
< - fade in
^ - brush up
v - brush down
Suggest correction
Give kudos to tab author, rate the tab!
1 2 3 4 5
comments
print report bad tab
1 comment total.
0 reply
Ben Goodrich 379 wrote on June 29 2010, 11:02 pm

Everything is great except the awkward fingering for riff 3. Instead of:
E E E E E E E E E E E E
--15----------13------10--|--13----------11------8--|
----------13------13------|----------11------11-----|
------13------------------|------12-----------------|
--------------------------|-------------------------|
--------------------------|-------------------------|
--------------------------|-------------------------|

It should be written like this for playing ease:
E E E E E E E E E E E E
--15----------13----------|--13----------11---------|
----------13------13--15--|----------11------11--13-|
------13------------------|------12-----------------|
--------------------------|-------------------------|
--------------------------|-------------------------|
--------------------------|-------------------------|

guest
You may want to rate the tab now too:
select rating
Please do not post tabs as comments. Select "correction" instead!