Oops, an error
Loading. Please wait.

Geometry Dash - Hexagon Force Tab

106 views 15 this week
no commentswrite comment
1 2 3 4 5
3 more votes to show rating
add to favorites
launch autoscroll
font size
0
reset
how to read this tab
guitar tuner
Autoscroll
slow
fast
+/-
esc
set tempo
stop
Help us to improve Ultimate-Guitar.com Take our survey!
×
Author
Difficulty
Tabbed by: moist_seagull


e|-------------------------------------------------------|
B|-------------------------------------------------------|
G|-------12----12----12----12----12----12----12----12----|
D|----12----12----------12----------12----------12-------|
A|-------------------------------------------------------|
E|-------------------------------------------------------|

e|-------------------------------------------------------|
B|-------------------------------------------------------|
G|-------12----12----12----12----12----12----12----12----|
D|----13----13----------13----15----15----------15-------|
A|-------------------------------------------------------|
E|-------------------------------------------------------|

e|-------------------------------------------------------|
B|-------------------------------------------------------|
G|-------12----12----12----12----12----12----12----12----|
D|----12----12----------12----------12----------12-------|
A|-------------------------------------------------------|
E|-------------------------------------------------------|

e|-------------------------------------------------------|
B|-------------------------------------------------------|
G|-------12----12----12----12----12----12----------12----|
D|----13----13----------13----15----15-------12-15-------|
A|-------------------------------------------------------|
E|-------------------------------------------------------|




e|------------------------------------------------------------------------------|
B|---------------------------15-------------------------15----13----------------|
G|----15--14--12-----12-------------15--14--12-----12------12-------15-14-15----|
D|---------------15----------------------------15-------------------------------|
A|------------------------------------------------------------------------------|
E|------------------------------------------------------------------------------|

e|------------------------------------------------------------------------------|
B|---------------------------15-------------------------15----13----------------|
G|----15--14--12-----12-------------15--14--12-----12------12-------15-14-15----|
D|---------------15----------------------------15-------------------------------|
A|------------------------------------------------------------------------------|
E|------------------------------------------------------------------------------|

e|-----------------------------------------------------------------|
B|-------------------15--------------------------------------------|
G|----15---14---15-------12------14------15---14---12--------12----|
D|------------------------------------------------------15---------|
A|-----------------------------------------------------------------|
E|-----------------------------------------------------------------|

e|--------------------13--15/18--15----|
B|------------13--15-------------------|
G|----14--15---------------------------|
D|-------------------------------------|
A|-------------------------------------|
E|-------------------------------------|



e|------------------------------15--13-------------------------------------------|
B|----------------13--15----------------15--13--15-------------------------13----|
G|----12--12--15-------------------------------------15--14----15--14--15--------|
D|-------------------------------------------------------------------------------|
A|-------------------------------------------------------------------------------|
E|-------------------------------------------------------------------------------|

e|------------------------------15--18--17--15--13-------------------------------|
B|----------------13--15-----------------------------15--13----15----------------|
G|----12--12--15---------------------------------------------------15--14--------|
D|-------------------------------------------------------------------------15----|
A|-------------------------------------------------------------------------------|
E|-------------------------------------------------------------------------------|

e|------------------------------15--13-------------------------------------------|
B|----------------13--15----------------15--13--15-------------------------13----|
G|----12--12--15-------------------------------------15--14----15--14--15--------|
D|-------------------------------------------------------------------------------|
A|-------------------------------------------------------------------------------|
E|-------------------------------------------------------------------------------|

e|------------------------------15--18--17--15--13-------------------------13--15----|
B|----------------13--15-----------------------------15--13----15--13--15------------|
G|----12--12--15---------------------------------------------------------------------|
D|-----------------------------------------------------------------------------------|
A|-----------------------------------------------------------------------------------|
E|-----------------------------------------------------------------------------------|



e|--------------------------------12------15------13--------13----|
B|----------------------------11--------------15--------15--------|
G|----12------12------10--12--------------------------------------|
D|----------------------------------------------------------------|
A|----------------------------------------------------------------|
E|----------------------------------------------------------------|

e|----15------15--------------15--17--18--17--18--20----18--17----|
B|--------------------15--18--------------------------------------|
G|----------------------------------------------------------------|
D|----------------------------------------------------------------|
A|----------------------------------------------------------------|
E|----------------------------------------------------------------|

e|----15------15------15--17--18--20------18--17--18----17--------|
B|----------------------------------------------------------18----|
G|----------------------------------------------------------------|
D|----------------------------------------------------------------|
A|----------------------------------------------------------------|
E|----------------------------------------------------------------|

e|----15------15----------12--13-------------------|
B|--------------------15---------------------------|
G|--------------------------------15p12------------|
D|---------------------------------------12--15----|
A|-------------------------------------------------|
E|-------------------------------------------------|



e|----15------15--13----------13--12----------12--13----------12--13--15------15--13----------13--15----|
B|--------15--------------15--------------15--------------15--------------15--------------15------------|
G|------------------------------------------------------------------------------------------------------|
D|------------------------------------------------------------------------------------------------------|
A|------------------------------------------------------------------------------------------------------|
E|------------------------------------------------------------------------------------------------------|

e|----------------------------------------------------------|
B|-------------------------------------6--8--------8--------|
G|-------------------5-----5--7--5--7-----------------------|
D|----5--7--8--7--8-----8-----------------------------------|
A|----------------------------------------------------------|
E|----------------------------------------------------------|

e|----------------------------------------------------------|
B|-----------------13---------------------------------------|
G|----15--15--12--------12-----------------12---------------|
D|---------------------------15---15---15-------------------|
A|----------------------------------------------------------|
E|----------------------------------------------------------|



e|------------------------------15--13-------------------------------------------|
B|----------------13--15----------------15--13--15-------------------------13----|
G|----12--12--15-------------------------------------15--14----15--14--15--------|
D|-------------------------------------------------------------------------------|
A|-------------------------------------------------------------------------------|
E|-------------------------------------------------------------------------------|

e|------------------------------15--18--17--15--13-------------------------------|
B|----------------13--15-----------------------------15--13----15----------------|
G|----12--12--15---------------------------------------------------15--14--------|
D|-------------------------------------------------------------------------15----|
A|-------------------------------------------------------------------------------|
E|-------------------------------------------------------------------------------|

e|------------------------------15--13-------------------------------------------|
B|----------------13--15----------------15--13--15-------------------------13----|
G|----12--12--15-------------------------------------15--14----15--14--15--------|
D|-------------------------------------------------------------------------------|
A|-------------------------------------------------------------------------------|
E|-------------------------------------------------------------------------------|

e|------------------------------15--18--17--15--13-------------------------13--15----|
B|----------------13--15-----------------------------15--13----15--13--15------------|
G|----12--12--15---------------------------------------------------------------------|
D|-----------------------------------------------------------------------------------|
A|-----------------------------------------------------------------------------------|
E|-----------------------------------------------------------------------------------|



************************************

| p  Pull-off
| /  Slide up

************************************
Suggest correction
Give kudos to tab author, rate the tab!
1 2 3 4 5
comments
print report bad tab
guest
You may want to rate the tab now too:
select rating
Wanna post a correction for this tab? Suggest correction