Oops, an error
Loading. Please wait.

Gitaroo Man - Legendary Theme Tab

version 1
version 1

Whole song

Interactive

22,747 views 24 this week
6 commentsread comments
1 2 3 4 5
accurate
x 11
add to favorites
launch autoscroll
font size
0
reset
how to read this tab
guitar tuner
Autoscroll
slow
fast
+/-
esc
set tempo
stop
Help us to improve Ultimate-Guitar.com Take our survey!
×
Author
                          The Legendary Theme - Gitaroo Man

This is the Electric version, the video is here. http://www.youtube.com/watch?v=4Wiu8nWMb04

Tabbed by:Xaxu
Tuning:Standard

Intro
  0:01 - 0:06
E-----------------------0--------------------|
B--4--------------------2--------------------|
G--4--------------------2--------------------|
D--2--------------------2--------------------|
A--2--------------------0--0--0--0--0--0--0--|
E-----0--0--0--0--0--0-----------------------|

  0:07 - 0:12 
E-----------------------0--------------------|
B--4--------------------2--------------------|
G--4--------------------2--------------------|
D--2--------------------2--------------------|
A--2--------------------0--0--0--0--0--0--0--|
E-----0--0--0--0--0--0-----------------------|


Riff
 0:13 - 0:24 
E------------------------------------------|
B------------------------------------------|
G------------------------------------------|
D------------------------------------------|
A----------4/6-----------------6/11--------|
E--4--5--7-----7--7/9--4--5--7------11/12--|


Main
 0:25 - 0:46
E-----------------------------------------------------------------------------------------|
B-----------------------------------------------------------------------------------------|
G----------8------------------13--------------------8---4/6--6b--4------9--------------9--|
D--6--7--9---9--9/11--6--7--9----13--13/14--6--7--9---9------------6--7---9--7--6--7------|
A-----------------------------------------------------------------------------------------|
E-----------------------------------------------------------------------------------------|

 0:48 - 1:09
E--------------------------------------------------------------------------------------|
B--------------------------------------------------------------------------------------|
G----------8------------------13--------------------8---4/6--6b--4-------9-------------|
D--6--7--9---9--9/11--6--7--9----13--13/14--6--7--9---9-------------6--7---9--7--6--7--|
A--------------------------------------------------------------------------------------|
E--------------------------------------------------------------------------------------|

Guitar 2 plays this 

e-------------------------------------------------------------|
B-------------------------------------------------------------|
G-------------------------------------------------------------|
D------------------------------------------------9--9-6-9/11--|
A-----7-9-9b11r-9--7-9------------------7-9-9b10--------------|
E---9------------------7-9------------9-----------------------|



From Main to Bridge
 1:10 - 1:11
E-----------|
B-----------|
G--9/11--9--|
D-----------|
A-----------|
E-----------|


Bridge
 1:12 - 1:23
E-------------------------------|
B--9----------7/9--9b--9--------|
G----9--11--9------------11--9--|
D-------------------------------|
A-------------------------------|
E-------------------------------|x2


 1:24 - 1:35
E---------------------------------------------------|
B---------------------------------------------------|
G-11--11b--9---10--10b--8-------------9/11--13--11--|
D------------9------------9--7--9--11---------------|
A---------------------------------------------------|
E---------------------------------------------------|

 

Main
 1:36 - 1:57
E-----------------------------------------------------------------------------------------------|
B-----------------------------------------------------------------------------------------------|
G----------8---------------------13--------------------8---4/6--6b--4-------9----------------9--|
D--6--7--9---9--9/11b~~--6--7--9----13--13/14--6--7--9---9-------------6--7---9--7h9p7--6--7----|
A-----------------------------------------------------------------------------------------------|
E-----------------------------------------------------------------------------------------------|



Solo
  1:58 - 2:00
e|-----------------------|
B|-----------------------|
G|--------9--11--11b--9--|
D|--9--11----------------|
A|-----------------------|
E|-----------------------|

  2:01 - 2:07
e|-----------------7b--7-----|
B|--9--9--9\7------------9b--|
G|------------9--9-----------|
D|---------------------------|
A|---------------------------|
E|---------------------------|

  2:08 - 2:12
e|-----------------------------------|
B|-----------------------------------|
G|--11--9--11b--9--11--11b--9--------|
D|----------------------------10--9--|
A|-----------------------------------|
E|-----------------------------------|

  2:13 - 2:16
e|--7--7--7--7/9--12--9----------------|
B|-------------------------------------|
G|-------------------------------------|
D|-------------------------------------|
A|-------------------------------------|
E|-------------------------------------|

  2:17 - 2:23
e|-------------------------------|
B|-------------------------------|
G|--11----9--11b--11--9--11b--9--|
D|-----11------------------------|
A|-------------------------------|
E|-------------------------------|
  
  2:24 - 2:28
e|--9~~~\7--7b~~~~--|
B|------------------|
G|------------------|
D|------------------|
A|------------------|
E|------------------|

  2:29 - 2:33
e|---------------------------------------|
B|--9------------------------------------|
G|----11--9--9----9--11--11b--9--8-------|
D|-------------11------------------9-----|
A|-----------------------------------11--|
E|---------------------------------------|

  2:34 - 2:38
e|------------9b~~~--9~~\7--9--12--|
B|---------------------------------|
G|--9--11b--9----------------------|
D|---------------------------------|
A|---------------------------------|
E|---------------------------------|

  2:39 - 2:45
e|------------12--14b--15b--14--|
B|--12--12/14-------------------|
G|------------------------------|
D|------------------------------|
A|------------------------------|
E|------------------------------|



Outro
2:46 - 3:10
E-------------------------------------------|
B-------------------------------------------|
G----------8------------------13------------|
D--6--7--9---9--9/11--6--7--9----13--13/14--|
A-------------------------------------------|
E-------------------------------------------|x2

Guitar 2 plays this
e---16\14\12--------19\17\16--------16\14\12--------19\17\16--|
B-------------------------------------------------------------|
G-------------------------------------------------------------|
D-------------------------------------------------------------|
A-------------------------------------------------------------|
E-------------------------------------------------------------|



End
  3:11
e|------|
B|------|
G|--13--|
D|------|
A|------|
E|------|


This tab took quiet awhile to finish, The solo was the hardest part
Thanks to everyone who contributed.







Suggest correction
comments
print report bad tab
6 comments total. Showing first comments.
-1 reply
Capt_Clarkson 70 wrote on March 9 2009, 02:53 pm

Nice, thanks man

-1 reply
tarrant1400 10 wrote on March 21 2009, 05:59 pm

small thing: on very first part, put in x2.

-1 reply
ViCaelestis 10 wrote on November 5 2009, 07:35 am

is it just me or does the 10 and bent 10 immediately after the bridge sound off?

guest
You may want to rate the tab now too:
select rating
Wanna post a correction for this tab? Suggest correction