Oops, an error
Loading. Please wait.

Gitaroo Man Theme Tab

4,733 views 1 this week
3 commentsread comments
1 2 3 4 5
x 5
add to favorites
launch autoscroll
font size
0
reset
how to read this tab
guitar tuner
Autoscroll
slow
fast
+/-
esc
set tempo
stop
Help us to improve Ultimate-Guitar.com Take our survey!
×
-|----------------|-------4--------|-------------------------|-------------|--|
-|-------4--------|----------4--5--|-------4---6--6b-------5-|---------5---|--|
-|-----4----4--6--|-----4----4--6--|-----4---4/6--6b-4-------|/4--------4--|--|
-|-6/7------------|-6/7------------|-6/7---------------6-7---|---7-6-7-----|--|
-|----------------|----------------|-------------------------|-------------|--|
-|----------------|----------------|-------------------------|-------------|--|


-|----------------|-------4--------|-------------------------|----------------|
-|-------4--------|----------4--5--|-------4---6--6b-------5-|---------5--7-5-|
-|-----4----4--6--|-----4----4--6--|-----4---4/6--6b-4-------|/4--------4-----|
-|-6/7------------|-6/7------------|-6/7---------------6-7---|---7-6-7--------|
-|----------------|----------------|-------------------------|----------------|
-|----------------|----------------|-------------------------|----------------|


-|-4---------4--5--4------|-4---------4--5--4------|----4------------------|--|
-|-----5-7-5----------7-5-|-----5-7-5----------7-5-|-7----7--4---6--6b-4---|--|
-|------------------------|------------------------|-----------4---------4-|--|
-|------------------------|------------------------|-----------------------|--|
-|------------------------|------------------------|-----------------------|--|
-|------------------------|------------------------|-----------------------|--|


-|------------4-------|-4---------4--5--4------|-4---------4--5--4------|-----|
-|---------7------7-5-|-----5-7-5----------7-5-|-----5-7-5----------7-5-|-----|
-|----4-6-------------|------------------------|------------------------|-----|
-|-7------------------|------------------------|------------------------|-----|
-|--------------------|------------------------|------------------------|-----|
-|--------------------|------------------------|------------------------|-----|


-|-4--------------|---------4---/5-------|----------------|-------4--------|--|
-|----5h7-5-4-----|---4-5-7----------7---|-------4--------|----------4--5--|--|
-|-------------6--|-6--------------------|-----4----4--6--|-----4----4--6--|--|
-|----------------|----------------------|-6/7------------|-6/7------------|--|
-|----------------|----------------------|----------------|----------------|--|
-|----------------|----------------------|----------------|----------------|--|


-|----------------|-------4---------------4-----------------------------------|
-|-------4--------|----------4--5---5--5--5-----------------------------------|
-|-----4----4--6--|-----4----4--6---6--6--4-----------------------------------|
-|-6/7------------|-6/7-------------------6-----------------------------------|
-|----------------|-----------------------7-----------------------------------|
-|----------------|-----------------------------------------------------------|
Suggest correction
comments
print report bad tab
3 comments total.
0 reply
minjubum 10 Aug 10, 2007 07:16 PM

great job completely accurate!

0 reply
Zeppoleon 10 Feb 15, 2008 10:06 PM

Thanks a lot!

0 reply
lion1 32 Apr 06, 2008 06:52 AM

awesome!

guest
You may want to rate the tab now too:
select rating
Wanna post a correction for this tab? Suggest correction