Oops, an error
Loading. Please wait.

Golden Sun I - A Little Friendship Tab

625 views 1 this week
no commentswrite comment
1 2 3 4 5
please rate
add to favorites
launch autoscroll
font size
0
reset
how to read this tab
guitar tuner
Autoscroll
slow
fast
+/-
esc
set tempo
stop
Help us to improve Ultimate-Guitar.com Take our survey!
×
Author
Xaxu 2,501
-------------------------------------------------------------------------------
                     A Little Friendship - Golden Sun I
-------------------------------------------------------------------------------
Tabbed by:Xaxu
Tuning:Standard

This is also know as Ivan's Theme
This was orginally by 
The video from timing is here = http://www.youtube.com/watch?v=cAI0HZpJWkw


  0:01 - 0:19
e|--------------7----------------4------9--7--------------|
B|--9--9--7---7---7--5--5--4---4---4--2------10--9--7--9--|
G|----------9----------------6----------------------------|
D|--------------------------------------------------------|
A|--------------------------------------------------------|
E|--------------------------------------------------------|

  0:21 - 0:41
e|-----------------------------------------9-------------7--|
B|----7--9--10--10--9--7---7--9--9--10--12---7--7--9--10----|
G|--9--------------------9----------------------------------|
D|----------------------------------------------------------|
A|----------------------------------------------------------|
E|----------------------------------------------------------|

  0:44 - 0:55
e|---------------9--12--11--9----9--------------------|
B|--9--9--10--12--------------12---12--10--9--10--12--|
G|----------------------------------------------------|
D|----------------------------------------------------|
A|----------------------------------------------------|
E|----------------------------------------------------|

  0:59 - 1:10
e|-----------------------9----9--12--11--12--14-----|
B|--9--10--12--9--10--12---12-------------------12--|
G|--------------------------------------------------|
D|--------------------------------------------------|
A|--------------------------------------------------|
E|--------------------------------------------------|

  1:13 - 1:25
e|--9--9--11--12---------------------------------|
B|---------------12--12--10--9--10--10--9--------|
G|----------------------------------------11--9--|
D|-----------------------------------------------|
A|-----------------------------------------------|
E|-----------------------------------------------|

Repeat till infinity
Any Questions or comments go to Xaxu at www.Ultimate-Guitar.com

| /  slide up
| \  slide down
| h  hammer-on
| p  pull-off
| ~  vibrato
| +  harmonic
| x  Mute note
===============================================================================
Suggest correction new What's this?
You can suggest a correction to this tab. Community and Mods will review your correction and vote to approve or reject it.
comments
We did not receive enough feedback on this tab! Please rate:
print report bad tab
1 2 3 4 5
guest
You may want to rate the tab now too:
select rating
Please do not post tabs as comments. Select "correction" instead!