Oops, an error
Loading. Please wait.

Golden Sun I - Imil Tab

1,522 views 1 this week
no commentswrite comment
1 2 3 4 5
2 more votes to show rating
add to favorites
launch autoscroll
font size
0
reset
how to read this tab
guitar tuner
Autoscroll
slow
fast
+/-
esc
set tempo
stop
Help us to improve Ultimate-Guitar.com Take our survey!
×
Author
-------------------------------------------------------------------------------
                                                  Imil - Golden Sun
-------------------------------------------------------------------------------
Tabbed by:Xaxu
Tuning:Standard

Transferred from Midi format. Video for timing is 
here = http://www.youtube.com/watch?v=DYxCdjsviX4

 
e|------3--2-----3--2--5-----3--2-------3--2--5---3--7--5--3----|
B|----1--------1-----------1------3---1---------3---------------|
G|--0--------0-----------0----------0------------------------2--|
D|--------------------------------------------------------------|
A|--------------------------------------------------------------|
E|--------------------------------------------------------------|

e|----5--3--2---3--2--3--5-----3--2-------0---0-----3--2------3--2--|
B|--3---------0--------------3------3---1---3-----3------3--0-------|
G|-------------------------2----------0---------2-------------------|
D|------------------------------------------------------------------|
A|------------------------------------------------------------------|
E|------------------------------------------------------------------|

e|--3--5-----3--2-------3--0--3-----3--2------3--2--3--5-----3--2----|
B|---------3------3---1-----------3------3--0--------------3------3--|
G|-------2----------0-----------2------------------------2-----------|
D|-------------------------------------------------------------------|
A|-------------------------------------------------------------------|
E|-------------------------------------------------------------------|


e|---------0-------2-----2--7---0--3--8----------0-----2--3--5--------|
B|----1--3-------3-----3--------------------0--1-----3-------------0--|
G|--0----------2--------------0-----------2--------2-------------0----|
D|-----------4-------4------------------2----------------------0------|
A|--------------------------------------------------------------------|
E|--------------------------------------------------------------------|

e|----3-----------2---5--10--5--2------0--2--3--7-----0--2--5---------|
B|--3---------3-----3-------------3--0--------------3-----------1--3--|
G|--------2-----2---------------------------------------------0-------|
D|------4---4-------------------------------------4-------------------|
A|--------------------------------------------------------------------|
E|--------------------------------------------------------------------|

e|--0--3---2--5--10---0--2--3--7-----0--2--5--------0--3-----5--2----|
B|------------------0--------------3-----------1--3--------3------3--|
G|-------2-----------------------------------0-----------------------|
D|-------------------------------4-----------------------4-----------|
A|-------------------------------------------------------------------|
E|-------------------------------------------------------------------|


Any questions or comments go to Xaxu at www.Ultimate-Guitar.com


| /  slide up
| \  slide down
| h  hammer-on
| p  pull-off
| ~  vibrato
| +  harmonic
| x  Mute note
===============================================================================
Suggest correction
Give kudos to tab author, rate the tab!
1 2 3 4 5
comments
print report bad tab
guest
You may want to rate the tab now too:
select rating
Wanna post a correction for this tab? Suggest correction