Oops, an error
Loading. Please wait.

Golden Sun I - Vale Tab

1,193 views 3 this week
no commentswrite comment
1 2 3 4 5
excellent!
x 3
add to favorites
launch autoscroll
font size
0
reset
how to read this tab
guitar tuner
Autoscroll
slow
fast
+/-
esc
set tempo
stop
Help us to improve Ultimate-Guitar.com Take our survey!
×
Author
-------------------------------------------------------------------------------
                                                    Vale - Golden Sun
-------------------------------------------------------------------------------
Tabbed by:Xaxu
Tuning:Standard

Transferred from Midi format. Video for timing is 
here = http://www.youtube.com/watch?v=M7lhYfIQy0k


e|------------------1--3--5--1---------------------------------------|
B|------3---1-----1----------------3---1-------1------------3---1----|
G|----0---0---0------------------0---0---0-------0--3-----0---0---0--|
D|--------------3----------------------------3--------3--------------|
A|--3--------------------------3-----------1------------3------------|
E|-------------------------------------------------------------------|

e|-------------------1---------------------3-----------------1--3--5--1--|
B|------1----------2-----2------1--3--0--3-------3---1-----1-------------|
G|--------0--3---------3---3--0----------------0---0---0-----------------|
D|----3--------3-----------------------------------------3---------------|
A|--1------------4---------------------------3---------------------------|
E|-----------------------------------------------------------------------|

e|--------------------------------------------------------4--------|
B|------3---1-------1------------3---1-------1----------2-----2----|
G|----0---0---0-------0--3-----0---0---0-------0--3---------3---3--|
D|----------------3--------3---------------3--------3--------------|
A|--3-----------1------------3-----------1------------4------------|
E|-----------------------------------------------------------------|

e|---------------3-----3-------------3-------1--0---------1--5-----1-------|
B|----1--3--0--3-----3---4--3---3--4---4---3------3-----3--------2---2--1--|
G|--0--------------3----------3----------2------------2--------1-----------|
D|--------------------------------------------------3----------------------|
A|-------------------------------------------------------------------------|
E|-------------------------------------------------------------------------|

e|------1--4----------0--3-----3----------3-------------3-------1--0----|
B|----2------2---1--3--------1---1--0---3---4--3---3--4---4---3------3--|
G|--1----------0-----------0----------3----------3----------2-----------|
D|----------------------------------------------------------------------|
A|----------------------------------------------------------------------|
E|----------------------------------------------------------------------|

e|--------1--5-----1----------1--4---------3---3------7--3---8--7--5--3--|
B|------3--------2---2--1---2------2--1--3---3---1--3------3-------------|
G|----2--------1----------1----------------------------------------------|
D|--3--------------------------------------------------------------------|
A|-----------------------------------------------------------------------|
E|-----------------------------------------------------------------------|

e|--1--8--7--5--3--1--0--7--5--3--1--0---1--5--7--7--8--10--8--7--5--3--1--8--|
B|-------------------------------------3--------------------------------------|
G|----------------------------------------------------------------------------|
D|----------------------------------------------------------------------------|
A|----------------------------------------------------------------------------|
E|----------------------------------------------------------------------------|

e|--7--5--3--1--0--7--5--3--1--0---1--5--7--7--8--10--|
B|-------------------------------3--------------------|
G|----------------------------------------------------|
D|----------------------------------------------------|
A|----------------------------------------------------|
E|----------------------------------------------------|

Any questions or comments go to Xaxu at www.Ultimate-Guitar.com

| /  slide up
| \  slide down
| h  hammer-on
| p  pull-off
| ~  vibrato
| +  harmonic
| x  Mute note
===============================================================================
Suggest correction
What's this?
You can suggest a correction to this tab. Community and Mods will review your correction and vote to approve or reject it.
comments
We did not receive enough feedback on this tab! Please rate:
print report bad tab
1 2 3 4 5
guest
You may want to rate the tab now too:
select rating
Please do not post tabs as comments. Select "correction" instead!