Oops, an error
Loading. Please wait.

Golden Sun I - Venus Lighthouse Tab

2,211 views 3 this week
no commentswrite comment
1 2 3 4 5
please rate
add to favorites
launch autoscroll
font size
0
reset
how to read this tab
guitar tuner
Tab Pro tools
  • play this tab
  • loop segment
  • change instrument
  • show fretboard
  • metronome
×
Best way to learn
"Golden Sun I - Venus Lighthouse"
Autoscroll
slow
fast
+/-
esc
set tempo
stop
Contributor
-------------------------------------------------------------------------------
                                              Venus Lighthouse - Golden Sun I
-------------------------------------------------------------------------------
Tabbed by:Xaxu
Tuning:Standard

This is an arrangement by Alex Brenzinger and is composed by Motoi Sakuraba
The video from timing is here = http://www.youtube.com/watch?v=q5d1rrbNo3o


e|--------------------------------------------|
B|-----------------------7--------------------|
G|------------9--6--7--9---9---6---6----------|
D|----6--7--9----------------9---9------------|
A|--9--------------------------------9--7--9--|
E|--------------------------------------------|

e|------------------------------------|
B|------------------------------------|
G|----6-------------------------------|
D|--9---------------------------------|
A|------9--7--9--11--9--9--9--11--12--|
E|------------------------------------|

e|------------------------------------|
B|------------------------------------|
G|----6-------------------------------|
D|--9---------------------------------|
A|------9--7--9--11--9--9--9--11--12--|
E|------------------------------------|


e|-----------------------------------------------|
B|----7------------------------------------------|
G|------9--7--6------6--7--6---------------------|
D|--------------9--9-----------------------------|
A|--9------------------------9--9--9--11--12--9--|
E|-----------------------------------------------|

e|-------------------------------------|
B|--7----------------------7--6--7--9--|
G|----9--7--6------6--7--6-------------|
D|------------9--9---------------------|
A|-------------------------------------|
E|-------------------------------------|

Any questions or comments go to Xaxu at www.Ultimate-Guitar.com

| /  slide up
| \  slide down
| h  hammer-on
| p  pull-off
| ~  vibrato
| +  harmonic
| x  Mute note
===============================================================================
comments
We did not receive enough feedback on this tab! Please rate:
print report bad tab
1 2 3 4 5
I want to post or [tab]
guest
You may want to rate the tab now too:
select rating
Please do not post tabs as comments. Select "correction" instead!