Oops, an error
Loading. Please wait.

Golden Sun Ii - Battle Jenna Tab

1,045 views 3 this week
no commentswrite comment
1 2 3 4 5
excellent!
x 3
add to favorites
launch autoscroll
font size
0
reset
how to read this tab
guitar tuner
Autoscroll
slow
fast
+/-
esc
set tempo
stop
Help us to improve Ultimate-Guitar.com Take our survey!
×
Author
-------------------------------------------------------------------------------
                     Battle! Jenna - Golden Sun II: The Lost Age
-------------------------------------------------------------------------------
Tabbed by:Xaxu
Tuning:Standard

This is orginally by Gloups
The video from timing is here = http://www.youtube.com/watch?v=Fbs0Qczbe5U


  0:02 - 0:08
e|-------------------------------------------|
B|--8--8---8--7---7------7--8---8--7---------|
G|-------9------7---9--9------9------7-------|
D|-------------------------------------7--9--|
A|-------------------------------------------|
E|-------------------------------------------|

  0:10 - 0:15
e|-----------------------------------------|
B|--8---8--7---7------7--8---8--7----------|
G|----9------7---9--9------9------9--7--9--|
D|-----------------------------------------|
A|-----------------------------------------|
E|-----------------------------------------|

  0:17 - 0:22
e|---------------------------------|
B|----------------------3--5-------|
G|----------2---2--4--5------2--4--|
D|--2--4--5---5--------------------|
A|---------------------------------|
E|---------------------------------|

  0:24 - 0:28
e|--------------------3--2-----------------|
B|------------------3------3------3--5-----|
G|--2--4--2------------------4--5-------2--|
D|----------5--4--5------------------------|
A|-----------------------------------------|
E|-----------------------------------------|

  0:30 - 0:43
e|-------------------------------------3--2------2--3--|
B|-------3-------------------------3--------3--5-------|
G|--4--2---4--2---------------4--2---4-----------------|
D|--------------5--4--2--4--5--------------------------|
A|-----------------------------------------------------|
E|-----------------------------------------------------|
 
Repeat till infinity
Any questions or comments go to Xaxu at www.Ultimate-Guitar.com

| /  slide up
| \  slide down
| h  hammer-on
| p  pull-off
| ~  vibrato
| +  harmonic
| x  Mute note
===============================================================================
Suggest correction
Give kudos to tab author, rate the tab!
1 2 3 4 5
comments
print report bad tab
guest
You may want to rate the tab now too:
select rating
Wanna post a correction for this tab? Suggest correction