Oops, an error
Loading. Please wait.

Good Morning Earthbound - Hotel Theme Tab

408 views 1 this week
2 commentsread comments
1 2 3 4 5
please rate
add to favorites
launch autoscroll
font size
0
reset
how to read this tab
guitar tuner
Autoscroll
slow
fast
+/-
esc
set tempo
stop
Help us to improve Ultimate-Guitar.com Take our survey!
×
Author
Difficulty
novice
-----------------------------------------------------------------------------
Good Morning (Hotel Theme) - Earthbound
Composed by: Hiroshi Kanazu, Keiichi Suzuki, and Hirokazu Tanaka
-----------------------------------------------------------------------------
Tabbed by: RescueRanger
Email: ceflory@gmail.com

Many thanks to corovanromo of YouTube for posting this video, it helped me figure this tab out: 
http://www.youtube.com/watch?v=JstRmlDMNLI

Tuning: Standard

e|-------0-----3------------------0----3---------|
B|-3-------3---1------1---3---------3--0---------|
G|---0-----------0--------2p0---0--------0-------|
D|-----4-----------2------0---4------------0h2---|
A|-5-----------3-----------------------3---------|
E|-3----------------------3----------------------|

And repeat.

************************************

| h   hammer-on
| p   pull-off

************************************
Suggest correction
Give kudos to tab author, rate the tab!
1 2 3 4 5
comments
print report bad tab
2 comments total.
+1 reply
oclictis1 218 wrote on February 11 2015, 09:00 pm

Awesome tab, I changed the 5 on the A string to be open on the D string and it makes this much easier and more natural to play.

0 reply
Rescueranger 32 wrote on February 27 2015, 12:21 am

Thank you, oclictis1! I included your correction.

guest
You may want to rate the tab now too:
select rating
Wanna post a correction for this tab? Suggest correction